Abba - Mamma Mia Text Bass Tab

Learn the song with the online tablature player
INTRO

G|----------------------------------------------------------------|
D|-0---0---0---0---0---0---0---0---0---0---0---0---0---0---0---0--|
A|----------------------------------------------------------------|
E|----------------------------------------------------------------| x 2

Verse

G|------------------------------------|
D|--0-0-0-0-0-0-0-0-0-0-0-0-0-0-0-0---|
A|------------------------------------|
E|------------------------------------|

G|------------------------------------|
D|------------------------------------|
A|------------------------------------|
E|--3-3-3-3-3-3-3-3-3-3-3-3-3-3-3-3---|

G|------------------------------------|
D|--0-0-0-0-0-0-0-0-0-0-0-0-0-0-0-0---|
A|------------------------------------|
E|------------------------------------|

G|------------------------------------|
D|------------------------------------|
A|------------------------------------|
E|--3-3-3-3-3-3-3-3-3-3-3-3-3-3-3-3---|

G|----------------------------------------------------------------|
D|-0---0---0---0---0---0---0---0---0---0---0---0---0---0---0---0--|
A|----------------------------------------------------------------|
E|----------------------------------------------------------------|

G|------------------------------------|
D|------------------------------------|
A|------------------------------------|
E|--3-3-3-3-3-3-3-3-3-3-3-3-3-3-3-3---|

G|---------------------2---2------------------|
D|-------------------0---0-----------0--------|
A|--0-0-0-0-0-0-0-0---------------------------|
E|------------------------------3-------| x 2-|

G|-----------------2---2---2---2---2---2---2---2-----|
D|-------------------2---2---2---2---2---2---2---2---|
A|-0-0-0-0-0-0-0-0-----------------------------------|
E|---------------------------------------------------|

Chorus

G|------------------------------------|
D|--0~--------------------------------|
A|------------------------------------|
E|------------------------------------|

G|-----------------------------------------------------------|
D|--0----0------0--0------0----------------------------------|
A|-------------------------------4----4------4--4------4-----|
E|-----------------------------------------------------------|

G|-----------------------------------------------------------|
D|-----------------------------------------------------------|
A|--2----2------2--2------2------0----0------0--0------0-----|
E|-----------------------------------------------------------|

G|-----------------------------------------------------------|
D|--------3----------------------------------0-----0---------|
A|--3--3---------3------2--0-------0--2--3-------------------|
E|-----------------------------------------------------------|

G|-------------------------------------|
D|--0-0-0-0-0-0-0----------------------|
A|----------------4--2-2-2-2-2-2-2-0---|
E|-------------------------------------|

G|-------------------------------------|
D|-------------------------------------|
A|------3---------------------0---0----|
E|--3-3-----3-3-2-0-----0-2-3----------|

INTRO

G|----------------------------------------------------------------|
D|-0---0---0---0---0---0---0---0---0---0---0---0---0---0---0---0--|
A|----------------------------------------------------------------|
E|----------------------------------------------------------------| x 2

Verse

G|------------------------------------|
D|--0-0-0-0-0-0-0-0-0-0-0-0-0-0-0-0---|
A|------------------------------------|
E|------------------------------------|

G|------------------------------------|
D|------------------------------------|
A|------------------------------------|
E|--3-3-3-3-3-3-3-3-3-3-3-3-3-3-3-3---|

G|------------------------------------|
D|--0-0-0-0-0-0-0-0-0-0-0-0-0-0-0-0---|
A|------------------------------------|
E|------------------------------------|

G|------------------------------------|
D|------------------------------------|
A|------------------------------------|
E|--3-3-3-3-3-3-3-3-3-3-3-3-3-3-3-3---|

G|----------------------------------------------------------------|
D|-0---0---0---0---0---0---0---0---0---0---0---0---0---0---0---0--|
A|----------------------------------------------------------------|
E|----------------------------------------------------------------|

G|------------------------------------|
D|------------------------------------|
A|------------------------------------|
E|--3-3-3-3-3-3-3-3-3-3-3-3-3-3-3-3---|

G|---------------------2---2------------------|
D|-------------------0---0-----------0--------|
A|--0-0-0-0-0-0-0-0---------------------------|
E|------------------------------3-------| x 2-|

G|-----------------2---2---2---2---2---2---2---2-----|
D|-------------------2---2---2---2---2---2---2---2---|
A|-0-0-0-0-0-0-0-0-----------------------------------|
E|---------------------------------------------------|

Chorus

G|------------------------------------|
D|--0~--------------------------------|
A|------------------------------------|
E|------------------------------------|

G|-----------------------------------------------------------|
D|--0----0------0--0------0----------------------------------|
A|-------------------------------4----4------4--4------4-----|
E|-----------------------------------------------------------|

G|-----------------------------------------------------------|
D|-----------------------------------------------------------|
A|--2----2------2--2------2------0----0------0--0------0-----|
E|-----------------------------------------------------------|

G|-----------------------------------------------------------|
D|--------3----------------------------------0-----0---------|
A|--3--3---------3------2--0-------0--2--3-------------------|
E|-----------------------------------------------------------|

G|-------------------------------------|
D|--0-0-0-0-0-0-0----------------------|
A|----------------4--2-2-2-2-2-2-2-0---|
E|-------------------------------------|

G|-------------------------------------|
D|-------------------------------------|
A|------3---------------------0---0----|
E|--3-3-----3-3-2-0-----0-2-3----------|

G|-------------------------------------|
D|----0-0-0-0-0-0-0----0-0-0-0-0-0-0---|
A|--5----------------4-----------------|
E|-------------------------------------|

G|------------------------------------|
D|------------------------------------|
A|------3------------------------0----|
E|--3-3----3-3-3-3-3-3-3-3-3-3-3------|

Chorus

G|--------------------------------------|
D|--0-0-0-0-0-0-0-0-----0-0-0-0-0-0-0---|
A|--------------------4-----------------|
E|--------------------------------------|

G|------------------------------------|
D|------------------------------------|
A|------3-----------------------------|
E|--3-3----3-3-3-3-3-3-3-3-3-3-3-3----|

G|-------------------------------------|
D|----0-0-0-0-0-0-0----0-0-0-0-0-0-0---|
A|--5----------------4-----------------|
E|-------------------------------------|

G|------------------------------------|
D|------------------------------------|
A|------3------------------------0----|
E|--3-3----3-3-3-3-3-3-3-3-3-3-3------|

G|-----------------------------------------------------------|
D|--0----0------0--0------0----------------------------------|
A|-------------------------------4----4------4--4------4-----|
E|-----------------------------------------------------------|

G|-----------------------------------------------------------|
D|-----------------------------------------------------------|
A|--2----2------2--2------2------0----0------0--0------0-----|
E|-----------------------------------------------------------|

G|-------------------------------------|
D|-------------------------------------|
A|------3---------------------0---0----|
E|--3-3-----3-3-2-0-----0-2-3----------|

G|-------------------------------------|
D|--0-0-0-0-0-0-0----------------------|
A|----------------4--2-2-2-2-2-2-2-0---|
E|-------------------------------------|

G|-------------------------------------|
D|-------------------------------------|
A|------3---------------------0---0----|
E|--3-3-----3-3-2-0-----0-2-3----------|

Outro

G|----------------------------------------------------------------|
D|-0---0---0---0---0---0---0---0---0---0---0---0---0---0---0---0--|
A|----------------------------------------------------------------|
E|----------------------------------------------------------------| x 4

G|-------------------|
D|-0-0-0-0-0-0--x-x--|
A|-------------------|
E|-------------------| x 2