AC/DC - Hail Ceasar Text Guitar Tab

Learn the song with the online tablature player
Intro & main riff
E-------------------------------------------------------------------
B-------------------------------------------------------------------
G----------------------2--------------------------------------------
D----------------------2--------------------------------------------
A--2-2---2-2---2-2---2-0--------------------------------------------
E--3-0---3-0---3-0---3----------------------------------------------

Chorus or riff #2
E-------------------------------------------------------------------
B-------------------------------------------------------------------
G------2------------------------------------------------------------
D--2-2-2-2-2--------------------------------------------------------
A--2-2-0-2-2--------------------------------------------------------
E--0-3---3-0--------------------------------------------------------

through out the song
E-------------------------------------------------------------------
B-------------------------------------------------------------------
G----2--------------------------------------------------------------
D--2-2-2-2----------------------------------------------------------
A--2-0-2-2----------------------------------------------------------
E--3---3-0----------------------------------------------------------