AC/DC - Soul Stripper Text Bass Tab

Learn the song with the online tablature player
main riff.
G|-----------------------------|
D|-----------------------------|
A|-2-0-2---2-0-2-2---2-0-2-0-2-|
E|-----------------------------|
play this throughout intro and verse

pre chorus
G|-----------------------------------|
D|-----------------------------------|
A|-----------------------------0-2---|
E|-3-3-3-3-3-3-3-3-3-3-3-3---3-----0-|

chorus
G|-----------------------------------------|
D|-----------------------------------------|
A|-2-0---2-2---2-0---2-2---------------0-2-|
E|-----0-----------2-------3-3-3-3-3-------|

these are all the riffs now heres the order in which they go

intro
main riff)

verse
main riff)
pre-chorus
chorus

verse
main riff)
pre-chorus
chorus
chorus over guitar solo
chorus out.