AC/DC - TNT Text Guitar Tab

Learn the song with the online tablature player
b       b   r                                              b   ~~~~
---------|-------------3-2-0----------------------------|--------------12------
---------|--------------------3-2-0---------------------|-----15(17)-------15--
---2(4)--|-2(4)-(2)-----------------2^0------0----------|----------------------
---------|-------------------------------3^0------------|----------------------
---------|----------------------------------------------|----------------------
---------|---------------------------------------19\--0-|-(0)------------------
                                   ~~~~~    b
-12------12--------------------------------------------12-----15^12-12-12----12
-----14------14-14^12-----14-----12-------14(16)--(14)-------------------------
   b  ~~~~~~~~                                                b
----------|----12-15-12----12--------------------------------------------------
-15(17)---|-------------15-----15-12----12-------------------------------------
----------|--------------------------14----14--12-----14----12(13)-------------
----------|----------------------------------------14----14--------------------
----------|--------------------------------------------------------14-12-12-14\
----------|--------------------------------------------------------------------
              b  ~~~~~~~~~~~~~~~~~~~~~~~~~~~~~~~~~
------------17(19)------------|-------------------(17)\4\----------------------
------------------------------|------------------------------------------------
------------------------------|----------------------------0-------------------
------------------------------|------------------------------------------------
------------------------------|------------------------------------------------
-----0------------------------|------------------------------------------------

  I know this is right for sure have fun with this solo it is a good one
(lock up you daughter lock up your wife lock the back door run for you life)

{em47}

 Legend of musical symbols
b=bend #'s in ()tells you how far to bend
r=releasebend
^=pull off or hamer on
\=slide
~= let it ring