Academy Is... - Almost Here Text Guitar Tab

Learn the song with the online tablature player
Intro
Guitar 1
e|---------------|-----------------|
B|-------5-5-----|---------5-5-----|
G|-----5-----5---|-------5-----5---|
D|---5---------5-|2x---5---------5-|2x
A|-3-------------|---7-------------|
D|---------------|-----------------|

Guitar 2 comes in around the end of the intro
e|-----------------------|
B|-5-5-5-5-5-5-5-5-5-5-5-|
G|-----------------------|
D|-----------------------|
A|-----------------------|
D|-----------------------|

Verse
Guitar 1 "So listen up..." (Strumming not defined)
e|---------------|
B|---------------|
G|---------------|
D|-3-------0-----|4x
A|-3-------0-----|
D|-3-------0-----|

Guitar 2 just does this for the whole verse.
e|-----------------|
B|-5-5-5-5-5-5-5-5-|
G|-----------------|
D|-----------------|
A|-----------------|
D|-----------------|

Chorus
"Hey, Hey..."
e|-----------------------------|
B|-----------------------------|
G|-----------------------------|
D|-5--5--3-3--3-5-5--5-3-3-3-3-|2x
A|-5--5--3-3--3-5-5--5-3-3-3-3-|
D|-5--5--3-3--3-5-5--5-3-3-3-3-|

Before the 2nd verse
e|-----------------------------|
B|-------5-5-----------5-5-----|
G|-----5-----5-------5-----5---|
D|---5---------5---5---------5-|
A|-3-------------7-------------|
D|-----------------------------|

Verse 2
Guitar 1 "So listen up..."
e|---------------|
B|---------------|
G|---------------|
D|-3-------0-----|4x
A|-3-------0-----|
D|-3-------0-----|

Guitar 2
e|-----------------|
B|-5-5-5-5-5-5-5-5-|
G|-----------------|
D|-----------------|
A|-----------------|
D|-----------------|

Chorus
"Hey, Hey..."
e|-----------------------------|
B|-----------------------------|
G|-----------------------------|
D|-5--5--3-3--3-5-5--5-3-3-3-3-|2x
A|-5--5--3-3--3-5-5--5-3-3-3-3-|
D|-5--5--3-3--3-5-5--5-3-3-3-3-|

"Hey, Hey...."
e|---------------------------------|
B|---------------------------------|
G|---------------------------------|
D|-5-5-5-5-3-3-3-3-5-5-5-5-3-3-3-3-|2x
A|-5-5-5-5-3-3-3-3-5-5-5-5-3-3-3-3-|
D|-5-5-5-5-3-3-3-3-5-5-5-5-3-3-3-3-|

Bridge
e|-----------|
B|-----------|
G|-4~----4~--|
D|-5~----5~--|
A|-3~----3~--|
D|-----------|

Guitar 1: "I'm on my feet..." Strumming is strange
e|---------|
B|---------|
G|---------|
D|-5-5-5-5-|
A|-3-3-3-3-|
D|---------|

Guitar 2 it does this alot
e|-------------|-------------------|
B|-------------|-------------------|
G|-4h5-4h5-----|-5-5-5-5-7-4-4-4-4-|
D|---------5p3-|3x-----------------|
A|-------------|-------------------|
D|-------------|-------------------|

"This isn't like us anyway."
e|--------|
B|--------|
G|-5~-----|
D|-5~-----|
A|-3~-----|
D|--------|

The guitar comes in with this
e|-----------------|
B|-5-5-5-5-5-5-5-5-|
G|-----------------|
D|-----------------|
A|-----------------|
D|-----------------|

"I'm RUNNING!!! "
e|-------------------------|
B|-------------------------|
G|-5-5-5-5-----------------|
D|-5-5-5-5-5-5-5-5-3-3-3-3-|
A|-3-3-3-3-5-5-5-5-3-3-3-3-|
D|---------5-5-5-5-3-3-3-3-|

"Our time is almost..."
e|-----------------------------------------------------------------|
B|-----------------------------------------------------------------|
G|-5-5-5-5-5-5-5-5-3-3-3-3-3-3-3-3-2-2-2-2-2-2-2-2-----------------|
D|-5-5-5-5-5-5-5-5-3-3-3-3-3-3-3-3-2-2-2-2-2-2-2-2-5-5-5-5-5-5-5-5-|3x
A|-3-3-3-3-3-3-3-3-1-1-1-1-1-1-1-1-0-0-0-0-0-0-0-0-5-5-5-5-5-5-5-5-|
D|-------------------------------------------------5-5-5-5-5-5-5-5-|

End: "our time is almost (This isnt like us anyway)"
e|-----------------------------|
B|-------5-5-----------5-5-----|
G|-----5-----5-------5-----5---|
D|---5---------5---5---------5-|
A|-3-------------7-------------|
D|-----------------------------|

Guitar 2
e|-----------------|
B|-5-5-5-5-5-5-5-5-|
G|-----------------|
D|-----------------|
A|-----------------|
D|-----------------|

So thats the best I could do for this. The Bridge was really hard
to do because so much was going on at the time so the chances of it
being right are small. Well enjoy.