Accept - Balls To The Wall Text Bass Tab

Learn the song with the online tablature player
Guitar Intro:
Tempo = 118

  |---------------------------------x2--------------------------------|
G |----------------|----------------|----------------|----------------|
D |----------------|----------------|----------------|----------------|
A |----------------|----------------|----------------|----------------|
E |----------------|----------------|----------------|----------------|

Bass Enters:

G |----------------|----------------|----------------|----------------|
D |----------------|----------------|----------------|----------------|
A |----------------|----------------|----------------|----------------|
E |0-0-0-0-0-0-0-0-|0-0-0-0-0-0-0-0-|0-0-0-0-0-0-0-0-|3-------4--5--0-|

G |----------------|----------------|----------------|----------------|
D |----------------|----------------|----------------|----------------|
A |----------------|----------------|----------------|----------------|
E |0-0-0-0-0-0-0-0-|0-0-0-0-0-0-0-0-|0-0-0-0-0-0-0-0-|3~--------------|

G |----------------|
D |----------------|
A |----------.-----|
E |(3)-------3---0-|

Verse 1

  |---------------------------------x3--------------------------------|
G |----------------|----------------|----------------|----------------|
D |----------------|----------------|----------------|----------------|
A |----------------|----------------|----------------|----------------|
E |0-0-0-0-0-0-0-0-|0-0-0-0-0-0-0-0-|0-0-0-0-0-0-0-0-|0-0-0-0-0-0-0-0-|

G |----------------|----------------|----------------|----------------|
D |----------------|----------------|----------------|----------------|
A |----------------|----------------|----------------|----------------|
E |0-0-0-0-0-0-0-0-|0-0-0-0-0-0-0-0-|0-0-0-0-0-0-0-0-|0-0-0-0-0-0-0-0-|

There is a little rift that is played once in Verse 1 listen to it in the song:

G |----------------|
D |----------------|
A |----------------|
E |3-4-5-----------|

Pre-Chorus

G |----------------|----------------|----------------|----------------|
D |----------------|----------------|----------------|----------------|
A |2-2-2-2-2-2-2-2-|2-2-2-2-2-2-2-2-|2-2-2-2-2-2-2-2-|2-2-2-2-2-2-2-2-|
E |----------------|----------------|----------------|----------------|

G |----------------|----------------|----------------|----------------|
D |----------------|----------------|----------------|.-.-.-.-.-------|
A |2-2-2-2-2-2-2-2-|2-2-2-2-2-2-2-2-|2-2-2-2-2-2-2-2-|0-0-0-0-0-------|
E |----------------|----------------|----------------|----------------|

Chorus

G |----------------|----------------|----------------|----------------|
D |----------------|----------------|----------------|----------------|
A |----2-----------|----2-----------|----2-----------|----2-----------|
E |0-----0-3---2-0-|--0---0-3---2---|0-----0-3---2-0-|0-0---0-3---2---|

G |----------------|----------------|--------|----------------|----------------|------|
D |----------------|----------------|--------|----------------|----------------|------|
A |----2-----------|----2-----------|----2---|----------------|5-5-5-5-5-5-5-5-|------|
E |0-----0-3---2-0-|--0---0-3---2---|0-----0-|3-3-3-3-3-3-3-3-|----------------|5-4-3-|

Interlude

G |----------------|----------------|----------------|----------------|
D |----------------|----------------|----------------|----------------|
A |----------------|----------------|----------------|----------.-----|
E |0-0-0-0-0-0-0-0-|0-0-0-0-0-0-0-0-|0-0-0-0-0-0-0-0-|0-0-0-0-0-3---0-|

Verse 2

  |---------------------------------x3--------------------------------|
G |----------------|----------------|----------------|----------------|
D |----------------|----------------|----------------|----------------|
A |----------------|----------------|----------------|----------------|
E |0-0-0-0-0-0-0-0-|0-0-0-0-0-0-0-0-|0-0-0-0-0-0-0-0-|0-0-0-0-0-0-0-0-|

G |----------------|----------------|----------------|----------------|
D |----------------|----------------|----------------|----------------|
A |----------------|----------------|----------------|----------------|
E |0-0-0-0-0-0-0-0-|0-0-0-0-0-0-0-0-|0-0-0-0-0-0-0-0-|0-0-0-0-0-0-0-0-|

Again There is a little rift that is played once in Verse 2 listen to it in the song:

G |----------------|
D |----------------|
A |----------------|
E |3-4-5-----------|

Pre-Chorus

G |----------------|----------------|----------------|----------------|
D |----------------|----------------|----------------|----------------|
A |2-2-2-2-2-2-2-2-|2-2-2-2-2-2-2-2-|2-2-2-2-2-2-2-2-|2-2-2-2-2-2-2-2-|
E |----------------|----------------|----------------|----------------|

G |----------------|----------------|----------------|----------------|
D |----------------|----------------|----------------|.-.-.-.-.-------|
A |2-2-2-2-2-2-2-2-|2-2-2-2-2-2-2-2-|2-2-2-2-2-2-2-2-|0-0-0-0-0-------|
E |----------------|----------------|----------------|----------------|

Chorus

G |----------------|----------------|----------------|----------------|
D |----------------|----------------|----------------|----------------|
A |----2-----------|----2-----------|----2-----------|----2-----------|
E |0-----0-3---2-0-|--0---0-3---2---|0-----0-3---2-0-|0-0---0-3---2---|

G |----------------|----------------|--------|----------------|----------------|------|
D |----------------|----------------|--------|----------------|----------------|------|
A |----2-----------|----2-----------|----2---|----------------|5-5-5-5-5-5-5-5-|------|
E |0-----0-3---2-0-|--0---0-3---2---|0-----0-|3-3-3-3-3-3-3-3-|----------------|5-4-3-|

Pre-Solo:

  |---------------------------------x2--------------------------------|
G |----------------|----------------|----------------|----------------|
D |----------------|----------------|----------------|----------------|
A |----------------|----------------|----------------|----------------|
E |0-0-0-0-0-0-0-0-|0-0-0-0-0-0-0-0-|0-0-0-0-0-0-0-0-|0-0-0-0-0-0-0-0-|

Solo

G |----------------|----------------|----------------|----------------|
D |----------------|----------------|----------------|----------------|
A |2-2-2-2-2-2-2-2-|----------------|2-2-2-2-2-2-2-2-|0-0-0-0-0-------|
E |----------------|3-3-3-3-3-3-3-3-|----------------|----------0-3-5-|

G |----------------|----------------|----------------|----------------|
D |----------------|----------------|----------------|----------------|
A |2-2-2-2-2-2-2-2-|----------------|2-2-2-2-2-2-2-2-|0-0-0-0-0-0-0-0-|
E |----------------|3-3-3-3-3-3-3-3-|----------------|----------------|

G |----------------|----------------|----------------|----------------|
D |----------------|----------------|----------------|----------------|
A |2-2-2-2-2-2-2-2-|----------------|2-2-2-2-2-2-2-2-|0-0-0-0-0-------|
E |----------------|3-3-3-3-3-3-3-3-|----------------|----------0-3-5-|

G |----------------|----------------|----------------|----------------|
D |----------------|----------------|----------------|----------------|
A |2-2-2-2-2-2-2-2-|----------------|2-2-2-2-2-2-2-2-|0-0-0-0-0-------|
E |----------------|3-3-3-3-3-3-3-3-|----------------|----------0-3~--|

Bass Interlude (...the sign of victory):

  |---------------------------------x8--------------------------------|
G |----------------|----------------|----------------|----------------|
D |----------------|----------------|----------------|----------------|
A |----2-----------|----2-----------|----2-----------|----2-----------|
E |0-----0-3---2-0-|--0---0-3---2---|0-----0-3---2-0-|--0---0-3---2---|

Pre-Chorus

G |----------------|----------------|----------------|----------------|
D |----------------|----------------|----------------|----------------|
A |2-2-2-2-2-2-2-2-|2-2-2-2-2-2-2-2-|2-2-2-2-2-2-2-2-|2-2-2-2-2-2-2-2-|
E |----------------|----------------|----------------|----------------|

G |----------------|----------------|----------------|----------------|
D |----------------|----------------|----------------|.-.-.-.-.-------|
A |2-2-2-2-2-2-2-2-|2-2-2-2-2-2-2-2-|2-2-2-2-2-2-2-2-|0-0-0-0-0-------|
E |----------------|----------------|----------------|----------------|

Chorus

G |----------------|----------------|----------------|----------------|
D |----------------|----------------|----------------|----------------|
A |----2-----------|----2-----------|----2-----------|----2-----------|
E |0-----0-3---2-0-|--0---0-3---2---|0-----0-3---2-0-|0-0---0-3---2---|

G |----------------|----------------|--------|----------------|----------------|------|
D |----------------|----------------|--------|----------------|----------------|------|
A |----2-----------|----2-----------|----2---|----------------|5-5-5-5-5-5-5-5-|------|
E |0-----0-3---2-0-|--0---0-3---2---|0-----0-|3-3-3-3-3-3-3-3-|----------------|5-4-3-|

G |----------------|----------------|----------------|----------------|
D |----------------|----------------|----------------|----------------|
A |----2-----------|----2-----------|----2-----------|----2-----------|
E |0-----0-3---2-0-|--0---0-3---2---|0-----0-3---2-0-|0-0---0-3---2---|

G |----------------|----------------|--------|----------------|----------------|------|
D |----------------|----------------|--------|----------------|----------------|------|
A |----2-----------|----2-----------|----2---|----------------|5-5-5-5-5-5-5-5-|------|
E |0-----0-3---2-0-|--0---0-3---2---|0-----0-|3-3-3-3-3-3-3-3-|----------------|5-4-3-|

G |----------------||
D |----------------||
A |----2---.-------||
E |0-----0-3-------||

Thats how you play Balls to the Wall on Bass. I saw another Bass Tab that was almost
this but it wasn't right.
I listened to this song a lot and found out this is the way to play it. I sounds just
how the Bassist plays it.