Accept - Guardian Of The Night Text Bass Tab

Learn the song with the online tablature player
Guardian Of The Night

     W                   W                   W
G||-------------------|-------------------|-------------------|
D||-------------------|-------------------|-------------------|
A||-------------------|-------------------|-------------------|
E||-------------------|-------------------|-------------------|

  W                   W                   W                   W
-------------------|-------------------|-------------------|-------------------|
-------------------|-------------------|-------------------|-------------------|
-------------------|-------------------|-------------------|-------------------|
-------------------|-------------------|-------------------|-------------------|

  W                   W                   H.           E  E
-------------------|-------------------|---------------------|
-------------------|-------------------|---------------------|
-------------------|-------------------|---------------------|
-------------------|-------------------|---------------0--2--|

  E  E  S S E  E  E  E  E     S. T S. T S S E  S. T S S E  E
---------------------------|----------------------------------|
---------------------------|----------------------------------|
---------------------------|----------------------------------|
--L--2--2-2----2--2--2--2--|--2----2----2-2----2----2-2-0--2--|

  S. T S. T S S E  S. T S S E  E     S. T S. T S S E  S. T S S E  E
----------------------------------|----------------------------------|
----------------------------------|----------------------------------|
----------------------------------|----------------------------------|
--2----2----2-2----2----2-2-0--2--|--2----2----2-2----2----2-2-0--2--|

  S. T S. T S S E  S. T S S E  E     S. T S. T S S E  S. T E  E  E
----------------------------------|---------------------------------|
----------------------------------|---------------------------------|
----------------------------------|---------------------------------|
--L----2----2-2----2----2-2-0--2--|--2----2----2-2----2----2--0--2--|

  B            E  E     E  E  E  E  E  E  E  E     E  E  E  E  E  E  E  E
---------------------|--------------------------|--------------------------|
---------------------|--------------------------|--------------------------|
---------------------|--------------------------|--------------------------|
--L------------L--2--|--L--0--2-----2--0--2-----|--2--0--2-----2--0--2-----|

  E  E  E  E  E  E  E  E     E  E  E  E  E  E  E  E
--------------------------|--------------------------|
--------------------------|--------------------------|
--------------------------|--------------------------|
--2--0--2-----2--0--2-----|--2--0--2-----2--5--0--2--|

  E  E  E  E  E  E  E  E     E  E  E  E  E  E  E  E
--------------------------|--------------------------|
--------------------------|--------------------------|
--------------------------|--------------------------|
--L--0--2-----2--0--2-----|--2--0--2-----2--0--2-----|

  E  E  E  E  E  E  E  E     E  E  E  E  E  E  E  E
--------------------------|--------------------------|
--------------------------|--------------------------|
--------------------------|-----------------------7--|
--2--0--2-----2--0--2-----|--2--0--2-----2--5--0-----|

  E  E  S S E  E  E  E  E     E  E  S S E  E  E  E  E
---------------------------|---------------------------|
---------------------------|---------------------------|
--L--7--7-7----7--0--2--5--|--L--5--5-5----5--5--2--0--|
---------------------------|---------------------------|

  E  E  S S E  E  E  E  E     E  E  S S E  E  E  E  E
---------------------------|---------------------------|
---------------------------|---------------------------|
--L--0--0-0----0-----------|---------------7--0--2--7--|
------------------4--2--0--|--L--0--0-0----------------|

  E  E  S S E  E  E  E  E     E  E  S S E  E  E  E  E
---------------------------|---------------------------|
---------------------------|---------------------------|
--L--7--7-7----7--0--2--5--|--L--5--5-5----5--5--2--0--|
---------------------------|---------------------------|

  E  E  S S E  E  E  E  E     E  E  S S E  Q     E  E
---------------------------|---------------------------|
---------------------------|---------------------------|
--L--0--0-0----0-----0--2--|--L--2--2-2----------------|
------------------3--------|---------------7\----0--2--|

  E  E  E  E  E  E  E  E     E  E  E  E  E  E  E  E
--------------------------|--------------------------|
--------------------------|--------------------------|
--------------------------|--------------------------|
--L--0--2-----2--0--2-----|--2--0--2-----2--0--2-----|

  E  E  E  E  E  E  E  E     E  E  E  E  E  E  E  E
--------------------------|--------------------------|
--------------------------|--------------------------|
--------------------------|--------------------------|
--2--0--2-----2--0--2-----|--2--0--2-----2--5--0--2--|

  E  E  E  E  E  E  E  E     E  E  E  E  E  E  E  E
--------------------------|--------------------------|
--------------------------|--------------------------|
--------------------------|--------------------------|
--L--0--2-----2--0--2-----|--2--0--2-----2--0--2-----|

  E  E  E  E  E  E  E  E     E  E  E  E  E  E  E  E
--------------------------|--------------------------|
--------------------------|--------------------------|
--------------------------|-----------------------7--|
--2--0--2-----2--0--2-----|--2--0--2-----2--5--0-----|

  E  E  S S E  E  E  E  E     E  E  S S E  E  E  E  E
---------------------------|---------------------------|
---------------------------|---------------------------|
--L--7--7-7----7--0--2--5--|--L--5--5-5----5--5--2--0--|
---------------------------|---------------------------|

  E  E  S S E  E  E  E  E     E  E  S S E  E  E  E  E
---------------------------|---------------------------|
---------------------------|---------------------------|
--L--0--0-0----0-----------|---------------7--0--2--7--|
------------------4--2--0--|--L--0--0-0----------------|

  E  E  S S E  E  E  E  E     E  E  S S E  E  E  E  E
---------------------------|---------------------------|
---------------------------|---------------------------|
--L--7--7-7----7--0--2--5--|--L--5--5-5----5--5--2--0--|
---------------------------|---------------------------|

  E  E  S S E  E  E  E  E     E  E  E  E  E  E  Q
---------------------------|-------------------------|
---------------------------|-------------------------|
--L--0--0-0----0--0--2--4--|--4--4--4--4--4----------|
---------------------------|-------------------------|

  E  E  E  E  E  E  E  E     E  E  E  E  E  E  E  E
--------------------------|--------------------------|
--------------------------|--------------------------|
--------------------------|--------------------------|
--2--2--2--2--2--2--2--2--|--4--4--4--4--4--4--4--4--|

  E  E  E  E  E  E  E  E     E  E  E  E  E  E  E  E
--------------------------|--------------------------|
--------------------------|--------------------------|
--------------------------|--------------4--2--0-----|
--5--5--5--5--5--5--5--5--|--4--4--4--4-----------4--|

  E  E  E  E  E  E  E  E     E  E  E  E  E  E  E  E
--------------------------|--------------------------|
--------------------------|--------------------------|
--------------------------|--------------------------|
--2--2--2--2--2--2--2--2--|--4--4--4--4--4--4--4--4--|

  E  E  E  E  Q     E  E     Q    Q    E  E  E  E     E  E  E  E  E  E  E  E
--------------------------|------------------------|--------------------------|
--------------------------|------------------------|--------------------------|
-----------------------5--|--L----4----2--0-----2--|--L--2--2--2--2--2--2--2--|
--5--5--5--5--5\----------|------------------2-----|--------------------------|

  E  E  E  E  E  E  E  E     E  E  E  E  E  E  E  E
--------------------------|--------------------------|
--------------------------|--------------------------|
--2--2--2--2--0--0--------|--------------------------|
--------------------0--2--|--L--0--2-----2--0--2-----|

  E  E  E  E  E  E  E  E     E  E  E  E  E  E  E  E
--------------------------|--------------------------|
--------------------------|--------------------------|
--------------------------|--------------------------|
--2--0--2-----2--0--2-----|--2--0--2-----2--0--2-----|

  E  E  E  E  E  E  E  E     E  E  E  E  E  E  E  E
--------------------------|--------------------------|
--------------------------|--------------------------|
--------------------------|--------------------------|
--2--0--2-----2--2--0--2--|--L--0--2-----2--0--2-----|

  E  E  E  E  E  E  E  E     E  E  E  E  E  E  E  E
--------------------------|--------------------------|
--------------------------|--------------------------|
--------------------------|--------------------------|
--2--0--2-----2--0--2-----|--2--0--2-----2--0--2-----|

  E  E  E  E  E  E  E  E     E  E  E  E  E  E  E  E
--------------------------|--------------------------|
--------------------------|--------------------------|
--------------------------|--------------------------|
--2--0--2-----2--2--0--2--|--L--0--2-----2--0--2-----|

  E  E  E  E  E  E  E  E     E  E  E  E  E  E  E  E
--------------------------|--------------------------|
--------------------------|--------------------------|
--------------------------|--------------------------|
--2--0--2-----2--0--2-----|--2--0--2-----2--0--2-----|

  E  E  E  E  E  E  E  E     E  E  S S E  E  E  E  E
--------------------------|---------------------------|
--------------------------|---------------------------|
-----------------------7--|--L--7--7-7----7--0--2--5--|
--2--0--2-----2--5--0-----|---------------------------|

  E  E  S S E  E  E  E  E     E  E  S S E  E  E  E  E
---------------------------|---------------------------|
---------------------------|---------------------------|
--L--5--5-5----5--5--2--0--|--L--0--0-0----0-----------|
---------------------------|------------------4--2--0--|

  E  E  S S E  E  E  E  E     E  E  S S E  E  E  E  E
---------------------------|---------------------------|
---------------------------|---------------------------|
--------7-7-------0--2--7--|--L--7--7-7----7--0--2--5--|
--L--0---------0-----------|---------------------------|

  E  E  S S E  E  E  E  E     E  E  S S E  E  E  E  E
---------------------------|---------------------------|
---------------------------|---------------------------|
--L--5--5-5----5--5--2--0--|--L--0--0-0----0--0--2--4--|
---------------------------|---------------------------|

  E  E  E  E  E  E  Q       E  E  E  E  E  E  E  E     E  E  E  E  E  E  E  E
-------------------------|--------------------------|--------------------------|
-------------------------|--------------------------|--------------------------|
--4--4--4--4--4----------|--------------------------|--------------------------|
-------------------------|--2--2--2--2--2--2--2--2--|--4--4--4--4--4--4--4--4--|

  E  E  E  E  E  E  E  E     E  E  E  E  E  E  E  E
--------------------------|--------------------------|
--------------------------|--------------------------|
--------------------------|--------------4--2--0-----|
--5--5--5--5--5--5--5--5--|--4--4--4--4-----------4--|

  E  E  E  E  E  E  E  E     E  E  E  E  E  E  E  E
--------------------------|--------------------------|
--------------------------|--------------------------|
--------------------------|--------------------------|
--2--2--2--2--2--2--2--2--|--4--4--4--4--4--4--4--4--|

  E  E  E  E  Q     E  E     Q    Q    E  E  E  E     Q    Q    E  E  E  E
--------------------------|------------------------|------------------------|
--------------------------|---------------------4--|--L----2----------------|
-----------------------5--|--L----4----2--0--------|------------4--2--0--2--|
--5--5--5--5--5\----------|------------------2-----|------------------------|

  E  E  E  E  E  E  E  E     E  E  E  E  E  E  E  E
--------------------------|--------------------------|
--------------------------|--------------------------|
--L--2--2--2--2--2--2--2--|--2--2--2--2--2--2--2--2--|
--------------------------|--------------------------|

  E  E  E  E  E  E  E  E     E  E  E  E  E  E  E  E
--------------------------|--------------------------|
--------------------------|--------------------------|
--2--2--2--2--2--2--2--2--|--2--2--2--2--2--0--0-----|
--------------------------|-----------------------2--|

  E  E  E  E  E  E  E  E     E  E  E  E  E  E  E  E
--------------------------|--------------------------|
--------------------------|--------------------------|
--------------------------|-----------------0--2--2--|
--L--2--2--2--2--2--2--2--|--2--2--2--2--2-----------|

  E  E  E  E  E  E  E  E     E  E  E  E  E  E  E  E     W
--------------------------|--------------------------|-------------------|
--------------------------|--------------------------|-------------------|
--L--2--2--2--2--2--2--2--|--2--2--2--2--2--2--2--4--|--L----------------|
--------------------------|--------------------------|-------------------|

  W                   W                   H.           E  E
-------------------|-------------------|---------------------|
-------------------|-------------------|---------------------|
--L----------------|--L----------------|--L------------------|
-------------------|-------------------|------------------2--|

  Q    H        E  E     Q    E  Q    E  E  E     Q    H        E  E
----------------------|------------------------|----------------------|
----------------------|------------------------|----------------------|
----------------------|------------------------|----------------------|
--L-------------5--4--|--L----2--0----2--4--2--|--L-------------5--4--|

  Q    E  Q    E  E  E     Q    H        E  E     Q    E  Q    E  E  E
------------------------|----------------------|------------------------|
------------------------|----------------------|------------------------|
------------------------|----------------------|---------------------5--|
--L----2--0----2--4--2--|--L-------------5--4--|--L----2--0----0--2-----|

  E  E  E  E  E  E  E  E     E  E  E  Q    E  E  E     Q    H        E  E
--------------------------|-------------------------|----------------------|
--------------------------|-------------------------|----------------------|
--L--5--5--5--5--5--4--2--|--L--2--0----------------|----------------------|
--------------------------|-----------4----4--4--2--|--L-------------5--4--|

  Q    E  Q    E  E  E     Q    H        E  E     Q    E  Q    E  E  E
------------------------|----------------------|------------------------|
------------------------|----------------------|------------------------|
------------------------|----------------------|------------------------|
--L----2--0----L--0--2--|--L-------------5--4--|--L----2--0----L--0--2--|

  Q    H        E  E     H.           E  E     Q    E  E  E  E  E  E
----------------------|---------------------|-------------------------|
----------------------|---------------------|-------------------------|
----------------------|------------------5--|--L----5--5--5--5--4--2--|
--L----------------4--|--L------------------|-------------------------|

  Q    E  Q    E  E  E     E  E  E  E  E  E  E  E     E  E  E  E  E  E  E  E
------------------------|--------------------------|--------------------------|
------------------------|--------------------------|--------------------------|
--L----0----------------|--------------------------|--------------------7-----|
----------4----2--0--2--|--L--2--2--2--2--2--2--2--|--2--2--2--2--0--0-----2--|

  E  E  E  E  E  E  E  E     E  E  E  E  E  E  E  E
--------------------------|--------------------------|
--------------------------|--------------------------|
--------------------------|--------------------------|
--2--2--2--2--2--2--2--2--|--2--2--2--2--0--0--2--2--|

  E  E  E  E  E  E  E  E     E  E  E  E  E  E  E  E
--------------------------|--------------------------|
--------------------------|--------------------------|
--------------------------|-----------------------5--|
--2--2--2--2--2--2--2--2--|--2--2--2--2--2--2--2-----|

  E  E  E  E  E  E  E  E     E  E  E  E  E  E  E  E
--------------------------|--------------------------|
--------------------------|--------------------------|
--5--5--5--5--5--5--5--5--|--5--5--5--5--5--5--4--4--|
--------------------------|--------------------------|

  E  E  E  E  E  E  E  E     E  E  E  E  E  E  E  E
--------------------------|--------------------------|
--------------------------|--------------------------|
--L--4--4--4--4--4--4--4--|--4--4--4--4--4--4--4--4--|
--------------------------|--------------------------|

  E  E  E  E  E  E  E  E     E  E  E  E  E  E  Q       E  E  E  E  E  E  E  E
--------------------------|-------------------------|--------------------------|
--------------------------|-------------------------|--------------------------|
--4--4--4--4--4--4--2--0--|-------------------------|--------------------------|
--------------------------|--4--2--0--0--0----------|--2--2--2--2--2--2--2--2--|

  E  E  E  E  E  E  E  E     E  E  E  E  E  E  E  E
--------------------------|--------------------------|
--------------------------|--------------------------|
--------------------------|--------------------------|
--4--4--4--4--4--4--4--4--|--5--5--5--5--5--5--5--5--|

  E  E  E  E  E  E  E  E     E  E  E  E  E  E  E  E
--------------------------|--------------------------|
--------------------------|--------------------------|
--------------4--2--0-----|--------------------------|
--4--4--4--4-----------4--|--2--2--2--2--2--2--2--2--|

  E  E  E  E  E  E  E  E     E  E  E  E  E  E  E  E
--------------------------|--------------------------|
--------------------------|--------------------------|
--------------------------|--------------------------|
--4--4--4--4--4--4--4--4--|--5--5--5--5--5--5--5--5--|

  E  E  E  E  E  E  E  E     E  E  E  E  E  E  E  E
--------------------------|--------------------------|
--------------------------|--------------------------|
--------------4--2--0-----|--------------------------|
--4--4--4--4-----------4--|--2--2--2--2--2--2--2--2--|

  E  E  E  E  E  E  E  E     E  E  E  E  E  E  E  E
--------------------------|--------------------------|
--------------------------|--------------------------|
--------------------------|--------------------------|
--4--4--4--4--4--4--4--4--|--5--5--5--5--5--5--5--5--|

  E  E  E  E  E  E  E  E     E  E  E  E  E  E  E  E
--------------------------|--------------------------|
--------------------------|--------------------------|
--------------4--2--0-----|--------------------------|
--4--4--4--4-----------4--|--2--2--2--2--2--2--2--2--|

  E  E  E  E  E  E  E  E     E  E  E  E  Q     E  E     Q    Q    E  E  E  E
--------------------------|--------------------------|------------------------|
--------------------------|--------------------------|------------------------|
--------------------------|-----------------------5--|--L----4----2--0--------|
--4--4--4--4--4--4--4--4--|--5--5--5--5--5\----------|------------------4--2--|

  Q    E  E  H           Q    E  E  H
----------------------|----------------------||
----------------------|----------------------||
-------0--2--L--------|----------------------||
----------------------|-------0--2-----------||

Duration Legend

W - whole
H - half
Q - quarter
E - 8th
S - 16th
T - 32nd
X - 64th
. - note dotted
|-n-|  - n-tuplets

L - tied note
x - dead note
g - grace note
(n) - ghost note
> - accentuded note
NH - natural harmonic
AH - artificial harmonic
TH - tapped harmonic
SH - semi harmonic
PH - pitch harmonic
h - hammer on
p - pull off
b - bend
br - bendRelease
pb - preBend
pbr - preBendRelease
brb - bendReleaseBend
\n/ - tremolo bar dip
\n - tremolo bar dive
-/n - tremolo bar Release up
/n\ - tremolo bar inverted dip
/n - tremolo bar return
-\n - tremolo bar Release down
S - shift slide
s - legato slide
/ -  slide into from below or out of upwards
\ -  slide into from above or out of downwards
~ - vibrato
W - wide vibrato
tr - trill
TP - tremolo picking
T - tapping
S - slap
P - pop
< - fade in
^ - brush up
v - brush down