Accept - Prisoner Text Bass Tab

Learn the song with the online tablature player
Prisoner

                                                                          Accept
Bass

     W                   W                   W
G||-------------------|-------------------|-------------------|
D||-------------------|-------------------|-------------------|
A||-------------------|-------------------|-------------------|
E||-------------------|-------------------|-------------------|
B||-------------------|-------------------|-------------------|

  W                   Q       E  E  E  E  E  E  E  E
-------------------|-------|--------------------------|
-------------------|-------|--------------------------|
-------------------|-------|--------------------------|
-------------------|-------|--5--5--5--1--1--1--1--1--|
-------------------|-------|--------------------------|

  E  E  E  E  E  E  E  E     Q    E  E  E  E  E  E     E  E  E  E  E  E  E  E
--------------------------|-------------------------|--------------------------|
--------------------------|-------------------------|--------------------------|
--3--3--3-----------------|-------------------------|--------------5--5--5--5--|
-----------3--3--3--3--3--|--5----5--1--L--1--1--1--|--3--3--3--3--------------|
--------------------------|-------------------------|--------------------------|

  E  E  E  E  E  E  E  E     E  E  E  E  E  E  E  E     Q    E  E  E  E  E  E
--------------------------|--------------------------|-------------------------|
--------------------------|--------------------------|-------------------------|
--------------------------|--3--3--3-----------------|-------------------------|
--5--5--5--1--1--1--1--1--|-----------3--3--3--3--3--|--5----5--1--L--1--1--1--|
--------------------------|--------------------------|-------------------------|

  E  E  E  E  E  E  E  E     W                   W
--------------------------|-------------------|-------------------|
--------------------------|-------------------|-------------------|
--------------------------|-------------------|-------------------|
--3--3--3--3--3--3--3--3--|--5----------------|--L----------------|
--------------------------|-------------------|-------------------|

  W                   W                   E  E  E  E  E  E  E  E
-------------------|-------------------|--------------------------|
-------------------|-------------------|--------------------------|
-------------------|-------------------|--------------------------|
--L----------------|--L----------------|--5-----5-----5-----5--5--|
-------------------|-------------------|--------------------------|

  S S E  E  E  E  E  E  E     S S E  E  E  E  E  E  E
---------------------------|---------------------------|
---------------------------|---------------------------|
---------------------------|---------------------------|
--5---5--5-----5-----5--5--|--3---3--3-----3-----3--3--|
---------------------------|---------------------------|

  S S E  E  E  E  E  E  E     S S E  E  E  E  E  E  E
---------------------------|---------------------------|
---------------------------|---------------------------|
---------------------------|---------------------------|
--5---5--5-----5--5-----3--|--5---5--5-----5-----5--5--|
---------------------------|---------------------------|

  S S E  E  E  E  E  E  E     S S E  E  E  E  E  E  E
---------------------------|---------------------------|
---------------------------|---------------------------|
---------------------------|---------------------------|
--5---5--5-----5-----5--5--|--3---3--3-----3-----3--3--|
---------------------------|---------------------------|

  S S E  E  E  E  E  E  E     E  E  E  E  E  E  E  E
---------------------------|--------------------------|
---------------------------|--------------------------|
---------------------------|--------------------------|
--5---5--5-----5-----5--5--|--1--1--1--1--1--1--1--1--|
---------------------------|--------------------------|

  E  E  E  E  E  E  E  E     E  E  E  E  E  E  E  E
--------------------------|--------------------------|
--------------------------|--------------------------|
--3--3--3-----------------|--------------------------|
-----------3--3--3--0--3--|--3--5--5-----5--5--0--3--|
--------------------------|--------------------------|

  E  E  E  E  E  E  E  E     E  E  E  E  E  E  E  E
--------------------------|--------------------------|
--------------------------|--------------------------|
--------------------------|--------------------------|
--L--5--5-----5--3-----1--|-----1--1--1--1--1--1--1--|
--------------------------|--------------------------|

  E  E  E  E  E  E  E  E     H.           E  E     E  E  E  E  E  E  Q
--------------------------|---------------------|-------------------------|
--------------------------|---------------------|-------------------------|
--------------------------|---------------------|--------3----------------|
--3--3--3--3--3--3--3--3--|--0------------L--0--|--L--1-----1--0----------|
--------------------------|---------------------|-------------------------|

  E  E  E  E  E  E  E  E     E  E  E  E  E  E  E  E
--------------------------|--------------------------|
--------------------------|--------------------------|
--------------------------|--------------------------|
--5-----5-----5-----5-----|--5-----5-----5-----5--3--|
--------------------------|--------------------------|

  E  E  E  E  E  E  E  E     E  E  E  E  E  E  E  E
--------------------------|--------------------------|
--------------------------|--------------------------|
--------------------------|--------------------------|
--5-----5-----5-----5--3--|--3-----3-----3-----3--5--|
--------------------------|--------------------------|

  E  E  E  E  E  E  E  E     E  E  E  E  E  E  E  E
--------------------------|--------------------------|
--------------------------|--------------------------|
--------------------------|--------------------------|
--5-----5-----5-----5-----|--5-----5-----5-----5--3--|
--------------------------|--------------------------|

  E  E  E  E  E  E  E  E     E  E  E  E  E  E  E  E     W
--------------------------|--------------------------|-------------------|
--------------------------|--------------------------|-------------------|
--------------------------|--------------------------|-------------------|
--5-----5-----5-----5--3--|--3-----3-----3-----3--5--|-------------------|
--------------------------|--------------------------|-------------------|

  W                   W                   W
-------------------|-------------------|-------------------|
-------------------|-------------------|-------------------|
-------------------|-------------------|-------------------|
-------------------|-------------------|-------------------|
-------------------|-------------------|-------------------|

  E  E  E  E  E  E  E  E     S S E  E  E  E  E  E  E
--------------------------|---------------------------|
--------------------------|---------------------------|
--------------------------|---------------------------|
--5-----5-----5-----5--5--|--5---5--5-----5-----5--5--|
--------------------------|---------------------------|

  S S E  E  E  E  E  E  E     S S E  E  E  E  E  E  E
---------------------------|---------------------------|
---------------------------|---------------------------|
---------------------------|---------------------------|
--3---3--3-----3-----3--3--|--5---5--5-----5--5-----3--|
---------------------------|---------------------------|

  S S E  E  E  E  E  E  E     S S E  E  E  E  E  E  E
---------------------------|---------------------------|
---------------------------|---------------------------|
---------------------------|---------------------------|
--5---5--5-----5-----5--5--|--5---5--5-----5-----5--5--|
---------------------------|---------------------------|

  S S E  E  E  E  E  E  E     S S E  E  E  E  E  E  E
---------------------------|---------------------------|
---------------------------|---------------------------|
---------------------------|---------------------------|
--3---3--3-----3-----3--3--|--5---5--5-----5-----5--5--|
---------------------------|---------------------------|

  E  E  E  E  E  E  E  E     E  E  E  E  E  E  E  E
--------------------------|--------------------------|
--------------------------|--------------------------|
--------------------------|--3--3--3-----------------|
--1--1--1--1--1--1--1--1--|-----------3--3--3--0--3--|
--------------------------|--------------------------|

  E  E  E  E  E  E  E  E     E  E  E  E  E  E  E  E
--------------------------|--------------------------|
--------------------------|--------------------------|
--------------------------|--------------------------|
--3--5--5-----5--5--0--3--|--L--5--5-----5--3-----1--|
--------------------------|--------------------------|

  E  E  E  E  E  E  E  E     E  E  E  E  E  E  E  E     W
--------------------------|--------------------------|-------------------|
--------------------------|--------------------------|-------------------|
--------------------------|--------------------------|-------------------|
-----1--1--1--1--1--1--1--|--3--3--3--3--3--3--3--3--|--0----------------|
--------------------------|--------------------------|-------------------|

  B            E  E     E  E  E  E  E  E  E  E     E  E  E  E  E  E  E  E
---------------------|--------------------------|--------------------------|
---------------------|--------------------------|--------------------------|
---------------------|--------------------------|--------------------------|
--L------------0--2--|--5-----5-----5-----5-----|--5-----5-----5-----5--3--|
---------------------|--------------------------|--------------------------|

  E  E  E  E  E  E  E  E     E  E  E  E  E  E  E  E
--------------------------|--------------------------|
--------------------------|--------------------------|
--------------------------|--------------------------|
--5-----5-----5-----5--3--|--3-----3-----3-----3--5--|
--------------------------|--------------------------|

  E  E  E  E  E  E  E  E     E  E  E  E  E  E  E  E
--------------------------|--------------------------|
--------------------------|--------------------------|
--------------------------|--------------------------|
--5-----5-----5-----5-----|--5-----5-----5-----5--3--|
--------------------------|--------------------------|

  E  E  E  E  E  E  E  E     E  E  B               E  E  E  E  E  E  E  E
--------------------------|---------------------|--------------------------|
--------------------------|---------------------|--------------------------|
--------------------------|---------------------|--------------------------|
--5--5-----3-----0-----0--|--L--1--1------------|--5-----5-----5-----5-----|
--------------------------|---------------------|--------------------------|

  E  E  E  E  E  E  E  E     E  E  E  E  E  E  E  E
--------------------------|--------------------------|
--------------------------|--------------------------|
--------------------------|--------------------------|
--5-----5-----5-----5--3--|--5-----5-----5-----5--3--|
--------------------------|--------------------------|

  E  E  E  E  E  E  E  E     E  E  E  E  E  E  E  E
--------------------------|--------------------------|
--------------------------|--------------------------|
--------------------------|--------------------------|
--3-----3-----3-----3--5--|--5-----5-----5-----5-----|
--------------------------|--------------------------|

  E  E  E  E  E  E  E  E     E  E  E  E  E  E  E  E     E  E  B
--------------------------|--------------------------|---------------------|
--------------------------|--------------------------|---------------------|
--------------------------|--------------------------|---------------------|
--5-----5-----5-----5--3--|--5--5-----3-----0-----0--|--L--1--1------------|
--------------------------|--------------------------|---------------------|

  W                   Q.     E  H           W
-------------------|---------------------|-------------------|
-------------------|---------------------|-------------------|
-------------------|---------------------|-------------------|
--L----------------|--L------1--1--------|--L----------------|
-------------------|---------------------|-------------------|

  Q.     E  H           Q    H        Q       Q    Q
---------------------|---------------------|-------------|
---------------------|---------------------|-------------|
---------5--5--------|--L----5--------5----|--L----5\----|
--L------------------|---------------------|-------------|
---------------------|---------------------|-------------|

  E  E  E  E  E  E  E  E     E  E  E  E  E  E  E  E
--------------------------|--------------------------|
--------------------------|--------------------------|
--------------------------|--------------------------|
--3--3--3--3--3--3--3--3--|--3--3--3--3--3--3--3--3--|
--------------------------|--------------------------|

  S. T S. T S. T S. T S. T S. T S. T S. T
------------------------------------------|
------------------------------------------|
------------------------------------------|
--0----0----0----0----0----0----0----0----|
------------------------------------------|

  S. T S. T S. T S. T S. T S. T S. T S. T
------------------------------------------|
------------------------------------------|
-------------------------------------5----|
--0----0----0----0----0----0----0---------|
------------------------------------------|

  S. T S. T S. T S. T S. T S. T S. T S. T
------------------------------------------|
------------------------------------------|
--5----5----5----5----5----5----5----0----|
------------------------------------------|
------------------------------------------|

  S. T S. T S. T S. T S. T S. T S. T S. T
------------------------------------------|
------------------------------------------|
------------------------------------------|
--0----0----0----0----0----0----0----0----|
------------------------------------------|

  S. T S. T S. T S. T S. T S. T S. T S. T
------------------------------------------|
------------------------------------------|
------------------------------------------|
--0----0----0----0----0----0----0----0----|
------------------------------------------|

  S. T S. T S. T S. T S. T S. T S. T S. T
------------------------------------------|
------------------------------------------|
------------------------------------------|
--0----0----0----0----0----0----0----0----|
------------------------------------------|

  S. T S. T S. T S. T S. T S. T S. T E     E  E  E  E  E  E  Q
----------------------------------------|-------------------------|
----------------------------------------|-------------------------|
--5----5----5----5----5----5----5----3--|--L--0--2--3--2----------|
----------------------------------------|-----------------0--3----|
----------------------------------------|-------------------------|

  S S S. T S. T S. T S. T S. T S. T S. T
-----------------------------------------|
-----------------------------------------|
-----------------------------------------|
--1---1----1----1----1----1----1----1----|
-----------------------------------------|

  S. T S. T S. T S. T S. T S. T S. T S. T
------------------------------------------|
------------------------------------------|
-------------------------------------6----|
--1----1----1----1----1----1----1---------|
------------------------------------------|

  S. T S. T S. T S. T S. T S. T S. T E
----------------------------------------|
----------------------------------------|
--6----6----6----6----6----6----6-------|
-------------------------------------1--|
----------------------------------------|

  S S S. T S. T S. T S. T S. T S. T E
---------------------------------------|
---------------------------------------|
---------------------------------------|
--1---1----1----1----1----1----1-------|
---------------------------------------|

  E  S. T S. T S. T S. T S. T S. T S. T
----------------------------------------|
----------------------------------------|
----------------------------------------|
-----1----1----1----1----1----1----1----|
----------------------------------------|

  S S S. T S. T S. T S. T S. T S. T S. T
-----------------------------------------|
-----------------------------------------|
-----------------------------------------|
--1---1----1----1----1----1----1----1----|
-----------------------------------------|

  S. T S. T S. T S. T S. T S. T S. T E
----------------------------------------|
----------------------------------------|
--6----6----6----6----6----6----6-------|
-------------------------------------1--|
----------------------------------------|

  S S S. T S. T S. T S. T S. T S. T S. T    E  E  E  E  E  E  E  E
-----------------------------------------|--------------------------|
-----------------------------------------|--------------------------|
-----------------------------------------|-----------6--6--6--6-----|
--1---1----1----1----1----1----1----1----|--3--3--3--------------6--|
-----------------------------------------|--------------------------|

  E  E  E  E  E  E  E  E     E  E  E  E  E  E  E  E
--------------------------|--------------------------|
--------------------------|--------------------------|
--------------------------|-----------6--6--6--6--6--|
--6--6--6--1--1--1--1--1--|--3--3--3-----------------|
--------------------------|--------------------------|

  E  E  E  E  E  E  E  E     E  E  E  E  E  E  E  E
--------------------------|--------------------------|
--------------------------|--------------------------|
--8--8--8-----------------|-----------6--6--6--6-----|
-----------8--8--6--5--3--|--3--3--3--------------6--|
--------------------------|--------------------------|

  E  E  E  E  E  E  E  E     E  E  E  E  E  E  E  E     E  E  E  E  E  Q.
--------------------------|--------------------------|------------------------|
--------------------------|--------------------------|------------------------|
--------------------------|-----------6--6--6--6--6--|--8--8--8--3------------|
--6--6--6--1--1--1--1--1--|--3--3--3-----------------|------------------------|
--------------------------|--------------------------|------------------------|

  E  E  E  E  E  E  E  E     E  E  E  E  E  E  E  E
--------------------------|--------------------------|
--------------------------|--------------------------|
--------------------------|--------------------------|
--5-----5-----5-----5-----|--5-----5-----5-----5--3--|
--------------------------|--------------------------|

  E  E  E  E  E  E  E  E     E  E  E  E  E  E  E  E
--------------------------|--------------------------|
--------------------------|--------------------------|
--------------------------|--------------------------|
--5-----5-----5-----5--3--|--3-----3-----3-----3--5--|
--------------------------|--------------------------|

  E  E  E  E  E  E  E  E     E  E  E  E  E  E  E  E
--------------------------|--------------------------|
--------------------------|--------------------------|
--------------------------|--------------------------|
--5-----5-----5-----5-----|--5-----5-----5-----5--3--|
--------------------------|--------------------------|

  E  E  E  E  E  E  E  E     E  E  B               E  E  E  E  E  E  E  E
--------------------------|---------------------|--------------------------|
--------------------------|---------------------|--------------------------|
--------------------------|---------------------|--------------------------|
--5--5-----3-----0-----0--|--L--1--1------------|--5-----5-----5-----5-----|
--------------------------|---------------------|--------------------------|

  E  E  E  E  E  E  E  E     E  E  E  E  E  E  E  E
--------------------------|--------------------------|
--------------------------|--------------------------|
--------------------------|--------------------------|
--5-----5-----5-----5--3--|--5-----5-----5-----5--3--|
--------------------------|--------------------------|

  E  E  E  E  E  E  E  E     E  E  E  E  E  E  E  E
--------------------------|--------------------------|
--------------------------|--------------------------|
--------------------------|--------------------------|
--3-----3-----3-----3--5--|--5-----5-----5-----5-----|
--------------------------|--------------------------|

  E  E  E  E  E  E  E  E     E  E  E  E  E  E  E  E     E  E  B
--------------------------|--------------------------|---------------------|
--------------------------|--------------------------|---------------------|
--------------------------|--------------------------|---------------------|
--5-----5-----5-----5--3--|--5--5-----3-----0-----0--|--L--1--1------------|
--------------------------|--------------------------|---------------------|

  E  E  E  E  E  E  E  E     E  E  E  E  E  E  E  E
--------------------------|--------------------------|
--------------------------|--------------------------|
--------------------------|--------------------------|
--5-----5-----5-----5-----|--5-----5-----5-----5--3--|
--------------------------|--------------------------|

  E  E  E  E  E  E  E  E     E  E  E  E  E  E  E  E
--------------------------|--------------------------|
--------------------------|--------------------------|
--------------------------|--------------------------|
--5-----5-----5-----5--3--|--3-----3-----3-----3--5--|
--------------------------|--------------------------|

  E  E  E  E  E  E  E  E     E  E  E  E  E  E  E  E
--------------------------|--------------------------|
--------------------------|--------------------------|
--------------------------|--------------------------|
--5-----5-----5-----5-----|--5-----5-----5-----5--3--|
--------------------------|--------------------------|

  E  E  E  E  E  E  E  E     E  E  B               E  E  E  E  E  E  E  E
--------------------------|---------------------|--------------------------|
--------------------------|---------------------|--------------------------|
--------------------------|---------------------|--------------------------|
--5--5-----3-----0-----0--|--L--1--1------------|--5-----5-----5-----5-----|
--------------------------|---------------------|--------------------------|

  E  E  E  E  E  E  E  E     E  E  E  E  E  E  E  E
--------------------------|--------------------------|
--------------------------|--------------------------|
--------------------------|--------------------------|
--5-----5-----5-----5--3--|--5-----5-----5-----5--3--|
--------------------------|--------------------------|

  E  E  E  E  E  E  E  E     E  E  E  E  E  E  E  E
--------------------------|--------------------------|
--------------------------|--------------------------|
--------------------------|--------------------------|
--3-----3-----3-----3--5--|--5-----5-----5-----5-----|
--------------------------|--------------------------|

  E  E  E  E  E  E  E  E     E  E  E  E  E  E  E  E     E  E  B
--------------------------|--------------------------|---------------------||
--------------------------|--------------------------|---------------------||
--------------------------|--------------------------|---------------------||
--5-----5-----5-----5--3--|--5--5-----3-----0-----0--|--L--1--1------------||
--------------------------|--------------------------|---------------------||

Duration Legend

W - whole
H - half
Q - quarter
E - 8th
S - 16th
T - 32nd
X - 64th
. - note dotted
|-n-|  - n-tuplets

L - tied note
x - dead note
g - grace note
(n) - ghost note
> - accentuded note
NH - natural harmonic
AH - artificial harmonic
TH - tapped harmonic
SH - semi harmonic
PH - pitch harmonic
h - hammer on
p - pull off
b - bend
br - bendRelease
pb - preBend
pbr - preBendRelease
brb - bendReleaseBend
\n/ - tremolo bar dip
\n - tremolo bar dive
-/n - tremolo bar Release up
/n\ - tremolo bar inverted dip
/n - tremolo bar return
-\n - tremolo bar Release down
S - shift slide
s - legato slide
/ -  slide into from below or out of upwards
\ -  slide into from above or out of downwards
~ - vibrato
W - wide vibrato
tr - trill
TP - tremolo picking
T - tapping
S - slap
P - pop
< - fade in
^ - brush up
v - brush down