Acid Bath - Venus Blue Text Guitar Tab

Learn the song with the online tablature player
The entire song is tuned down a whole step.

Riff 1
Intro-two clean guitars

D|-------------------------------------------------------------|
A|-------------------------------------------------------------|
F|-------------------------------------------------------------|
C|---5--6-6-6-6-5------5---------------------------------------|
G|-------------------6-----6----------8----------------8-------|
D|-------------------------------6--6------6-s/-8--8-8-----8---|

Riff 1
With variation

D|-------------------------------------------------------------|
A|-------------------------------------------------------------|
F|-------------------------------------------------------------|
C|---5--6-6-6-6-5------5---------------------------------------|
G|-------------------6-----6---6-s/-8-8-8-8-s/10-10-10-10-10---|
D|-------------------------------------------------------------|

Riff 2
With distortion
                                         P.M.
D|-------------------------------------------------------------------|
A|-------------------------------------------------------------------|
F|-------------------------------------------------------------------|
C|---5--6-6-6-6-5---5---5------8---8-8-8---8----8----10-10-10-10-10--|
G|----------------6---6---6----8---8-8-8---8----8-s/-10-10-10-10-10--|
D|-----------------------------6---6-6-6---6----6-s/-8--8--8--8--8---|

Riff 3
With distortion

D|-----------------------------------------------------------|
A|-----------------------------------------------------------|
F|-----------------------------------------------------------|
C|--10-10-10-10-10-10---5---5-5---8-8-8---8-s/-10-10-10------|
G|--10-10-10-10-10-10---5---5-5---8-8-8---8-s/-10-10-10------|
D|--8--8--8--8--8--8----3---3-3---6-6-6---6-s/-8--8--8-------|

Riff 3
cont)

D|-------------------------------------------|
A|-------------------------------------------|
F|-------------------------------------------|
C|-3-5-5-5-5-3-6-6-6-6-3-5-5-5-5-4-6-6-6-6---|
G|-3-5-5-5-5-3-6-6-6-6-3-5-5-5-5-4-6-6-6-6---|
D|-1-3-3-3-3-1-4-4-4-4-1-3-3-3-3-2-4-4-4-4---|