Adema - Nutshell Text Guitar Tab

Learn the song with the online tablature player
Chords used:
e|------------------2----|
B|----4------6------2----|
G|----4------6------3----|
D|----4------6-----------|
A|-----------------------|
E|-----------------------|

Solo
e|--11------------------------------------9--------------------|
B|------11-----------------------------------9-----------------|
G|----------10--10h11p10--8------------------------------------|
D|---------------------------8--9^--------------9--8h9p8-------|
A|---------------------------------------------------------8~--|
E|-------------------------------------------------------------|

Thats basically the whole song for guitar.
You will get the hang of it.
C ya!