Adhesive - Scent Of Life Text Guitar Tab

Learn the song with the online tablature player
                        SCENT OF LIFE - Adhesive

Intro
G|---------------------------------------------------------------|
D|---------------------------------------------------------------|
A|---------------------------------------------------------------|
E|0-0-0-0-0-0-0-0--0-0-0-0--2------------------------------------|

Verse
x2)
G|---------------------------------------------------------------|
D|---------------------------------------------------------------|
A|2-2-2-2-2-2-2-2-2-2-2-2-2-2-2-2--------------------------------|
E|-------------------------------0-0-0-0-0-0-0-0--2-2-2-2-2-2-2-2|

Pre Chorus
G|---------------------------------------------------------------|
D|---------------------------------------------------------------|
A|---------------------------------------------------------------|
E|0-0-0-0--0-0-0-0--0-0-0-0--2-2-2-2-----------------------------|

Chorus
x2)
G|---------------------------------------------------------------|
D|---------------------------------------------------------------|
A|2-2-2-2-2-2-2-2-----------------4-4-4-4-4-4-4-4-0-0-0-0-7-7-7-7|
E|----------------2-2-2-2-2-2-2-2--------------------------------|
Intro

Verse
x2)
Pre Chorus

Chorus
x10)