Adicts - Get Adicted Text Guitar Tab

Learn the song with the online tablature player
The Adicts
"Get Adicted"
From The 1981 Album "Songs of Praise"

Legend:
p.m. - palm mute
( )  - let note ring

Intro
  D5                 A5
|-----------------------------------|
|-----------------------------------|
|-7-7-7-7-7-7-7-7-7-----------------|
|-7-7-7-7-7-7-7-7-7---7---7--7-7-7--| X7
|-5-5-5-5-5-5-5-5-5---7---7--7-7-7--|
|-------------------0-5---5--5-5-5--|

Verse 1
|-----------------------------------|
|-----------------------------------|
|-----------------------------------|
|-7-7-7-7-7-7-7-7-7-----------------| X2
|-5-5-5-5-5-5-5-5-5-7-7-7-7-7-7-7-7-|
|-------------------5-5-5-5-5-5-5-5-|
  p.m.____________________________

|-----------------------------------|
|-----------------------------------|
|-----------------------------------|
|-7-7-7-7-7-7-7-7-7-----------------| X2
|-5-5-5-5-5-5-5-5-5-7-7-7-7-7-7-7-7-|
|-------------------5-5-5-5-5-5-5-5-|

Chorus 1

|------------------------------------|
|------------------------------------|
|-7---7-7--4------4--4---------------|
|-7---7-7--4------4--4--5-----5--7---|
|-5---5-5--2------2--2--5-----5--7---|
|-----------------------3-----3--5---|

   "Get addicted cuz it ain't no crime.."

|-------------------------------------|
|-------------------------------------|
|-------------------------------------|
|-5--5--5--5--5--7--7--7--7--7--7-----|
|-5--5--5--5--5--7--7--7--7--7--7-----|
|-3--3--3--3--3--5--5--5--5--5--5-----|
 "Get a-get-a-get-a-get-a-get-ADICTED"

Bridge
  D5                 A5
|-----------------------------------|
|-----------------------------------|
|-7-7-7-7-7-7-7-7-7-----------------|
|-7-7-7-7-7-7-7-7-7---7---7--7-7-7--| X4
|-5-5-5-5-5-5-5-5-5---7---7--7-7-7--|
|-------------------0-5---5--5-5-5--|

Verse 2
|-----------------------------------|
|-----------------------------------|
|-----------------------------------|
|-7-7-7-7-7-7-7-7-7-----------------| X2
|-5-5-5-5-5-5-5-5-5-7-7-7-7-7-7-7-7-|
|-------------------5-5-5-5-5-5-5-5-|
  p.m.____________________________

|----------------------------------|
|-----7----------------------------|
|-7-------7-------------6----------|
|-7-----------7---7---------7------| X2
|-5---------------7-------------7--|
|-----------------5----------------|

Chorus 2
same as first chorus)

Bridge 2
|----------------------------------|
|-----7----------------------------|
|-7-------7-------------6----------|
|-7-----------7---7---------7------| X4
|-5---------------7-------------7--|
|-----------------5----------------|

|----------------------------|
|----------------------------|
|-7-7-7-7-7------------------|
|-7-7-7-7-7-------7-7-7-7-7--|
|-5-5-5-5-5-------7-7-7-7-7--|
|-----------------5-5-5-5-5--|

|------------------------------------|
|------------------------------------|
|-7-7-7-7-7-7-7-7--------------------|
|-7-7-7-7-7-7-7-7----7-7-7-7-7-7-7-7-| X4
|-5-5-5-5-5-5-5-5----7-7-7-7-7-7-7-7-|
|--------------------5-5-5-5-5-5-5-5-|

Verse 3
same as verse 2)

Chorus 3
same as first 2)

Outro

|------------------------------------|
|------------------------------------|
|-8---8-8--5------5--5---------------| X4
|-8---8-8--5------5--5--6-----6--9---|
|-6---6-6--3------3--3--6-----6--9---|
|-----------------------4-----6--7---|

|-------------|-------|
|-------------|-------|
|--8-----(8)--|--8----|
|--8-----(8)--|--8----|
|--6-----(6)--|--6----|
|-------------|-------|