Adolescents - Democracy Text Guitar Tab

Learn the song with the online tablature player
verse

G---------------------------------------------------|
D---------------------5-5---------------------------|
A----5-5-------6-6----------------------------------|
E---------5-5---------------------------------------|

repeat above as nessesary

chorus

G---------------------------------------------------|
D---------------------------------------------------|
A---3-3-3-3--2-2-3-3---0-0-6-6--5-5-3-3-------------|
E---------------------------------------------------|

repeat above as nessesary

G---------------------------------------------------|
D---------------------------------------------------|
A---0-0-6-6--5-5-3-3--------------------------------|
E---------------------------------------------------|

repeat above as nessesary

listen to the song and you should get it down the rythym
enjoy