Aereogramme - Fuel To Burn Text Guitar Tab

Learn the song with the online tablature player
------------------------------------------------------------------------------|
------------------------------------------------------------------------------|
-9-9-9-9-9-9-9-9-9-9-9-9-9-9-9-9-9-9-9-9-9-9-9-9------------------------------|
-0-0-0-0-0-0-0-0-0-0-0-0-7-7-7-7-7-7-7-7-7-7-7-7---x1-1/2---------------------|
-7-7-7-7-7-7-7-7-7-7-7-7-7-7-7-7-7-7-7-7-7-7-7-7------------------------------|
-8-8-8-8-8-8-8-8-8-8-8-8-7-7-7-7-7-7-7-7-7-7-7-7------------------------------|
 dist        clean       dist        clean

------------------------------------------------------------------------------|
------------------------------------------------------------------------------|
-9-9-9-9-9-9-9-9-9-9-9-9-9-9-9-9----------------------------------------------|
-0-0-0-0-0-0-0-0-7-7-7-7-7-7-7-7----x1----------------------------------------|
-7-7-7-7-7-7-7-7-7-7-7-7-7-7-7-7----------------------------------------------|
-8-8-8-8-8-8-8-8-7-7-7-7-7-7-7-7----------------------------------------------|
 Over funny squeely noise

------------------------------------------------------------------------------|
------------------------------------------------------------------------------|
-9-9-9-9-9-9-9-9-9-9-9-9-9-9-9-9-9-9-9-9-9-9-9-9------------------------------|
-0-0-0-0-0-0-0-0-0-0-0-0-7-7-7-7-7-7-7-7-7-7-7-7--x2--------------------------|
-7-7-7-7-7-7-7-7-7-7-7-7-7-7-7-7-7-7-7-7-7-7-7-7------------------------------|
-8-8-8-8-8-8-8-8-8-8-8-8-7-7-7-7-7-7-7-7-7-7-7-7------------------------------|

------------------------------------------------------------------------------|
------------------------------------------------------------------------------|
------------------------------------------------------------------------------|
-12---------------------------------------------------------------------------|
-12---------------------------------------------------------------------------|
-12---------------------------------------------------------------------------|

------------------------------------------------------------------------------|
------------------------------------------------------------------------------|
-4-4-4-4-4-4-4-4-6-6-6-6-6-6-6-6-9-9-9-9-9-9-9-9-5-5-5-5-5-5-5-5--------------|
-2-2-2-2-2-2-2-2-4-4-4-4-4-4-4-4-7-7-7-7-7-7-7-7-3-3-3-3-3-3-3-3--------------|
-2-2-2-2-2-2-2-2-4-4-4-4-4-4-4-4-7-7-7-7-7-7-7-7-3-3-3-3-3-3-3-3--------------|
------------------------------------------------------------------------------|

------------------------------------------------------------------------------|
------------------------------------------------------------------------------|
-7-9-7-4-4-4-4-4-4-4-4-4-4----------------------------------------------------|
-5-7-5-2-2-2-2-2-2-2-2-2-2----------------------------------------------------|
-5-7-5-2-2-2-2-2-2-2-2-2-2----------------------------------------------------|
------------------------------------------------------------------------------|

------------------------------------------------------------------------------|
------------------------------------------------------------------------------|
-9-9-9-9-9-9-----7-----7-9-9-9-9-9-9------------------------------------------|
-0-0-0-0-0-0---7-----7---7-7-7-7-7-7--7-0--7-0---x4---------------------------|
-7-7-7-7-7-7-7-----7-----7-7-7-7-7-7--7-0--7-0--------------------------------|
-8-8-8-8-8-8-------------7-7-7-7-7-7--7-0--7-0--------------------------------|
            (7)harmonics

------------------------------------------------------------------------------|
------------------------------------------------------------------------------|
------------------------------------------------------------------------------|
-12-12-12-12-12-12-12-12-12-12-12-12-9-9-9-9-9-9-11-11-11-11-11-11------------|
-12-12-12-12-12-12-12-12-12-12-12-12-9-9-9-9-9-9-11-11-11-11-11-11-x4---------|
-12-12-12-12-12-12-12-12-12-12-12-12-9-9-9-9-9-9-11-11-11-11-11-11------------|

------------------------------------------------------------------------------|
------------------------------------------------------------------------------|
-18-18-18-18-18-18-18-18-18-18-18-18-19-19-19-19-19-19-19-16-16-16-16-16-16---|
-x--x--x--x--x--x--x--x--x--x--x--x--x--x--x--x--x--x--x--x--x--x--x--x--x----|
-16-16-16-16-16-16-16-16-16-16-16-16-17-17-17-17-17-17-17-14-14-14-14-14-14---|
------------------------------------------------------------------------------|
 I know this bits not 100% right but its the right idea

------------------------------------------------------------------------------|
------------------------------------------------------------------------------|
-6-----------4-4-4-4-4-4-4-4-6-6-6-6-6-6-6-7----------------------------------|
-4-----------2-2-2-2-2-2-2-2-4-4-4-4-4-4-4-5----------------------------------|
-4-----------2-2-2-2-2-2-2-2-4-4-4-4-4-4-4-5----------------------------------|
------------------------------------------------------------------------------|