Afghan Whigs - Gentlemen Text Guitar Tab

Learn the song with the online tablature player
GENTLEMEN - The Album

By

AFGHAN WHIGS
(Elektra/Sub Pop #61501-2)

Contains(*=with basslines):
If I were Going *
Gentlemen
Be sweet *
Debonair *
When we two parted *
Fountain and Fairfax
What jail is like
My Curse
Now you know
I keep coming back *

IF I WERE GOING

Riff1
Guitar:
e--------------------------------------------------|
B------8----8--8--8--8--8--8---7---7-7---3---3-3---|
G------9h11-11-11-11-11-11-9---6---6-6---0---0-0---|
D--------------------------------------------------|
A--------------------------------------------------|
E--0-----------------------------------------------|

Bass
G----------------------------------------------------|
D----------------------------------------------------|
A--7------------------------(9or10or12)--(9or10or12)-|
E----(let ring)--------------------------------------|

Riff2
Guitar:
e-------------------------------------------------------|
B--8/10-10-10-10-10-88888-8---8/10-10-10-10-10-8888-8---|
G--7/9--9--9--9--9--99999-7---7/9--9--9--9--9--9999-7---|
D-------------------------------------------------------|
A-------------------------------------------------------|
E-------------------------------------------------------|

Bass
G--------------------------------------------------------|
D--------------------------------------------------------|
A-/10----------------------------(7or12)-----------------|
E-----(let ring)-----------------------------------------|

Riff3
Guitar:
e---------------------------|
B----8----8--8--8--8--8--8--|
G----9h11-11-11-11-11-11-9--|
D---------------------------|
A---------------------------|
E-0-------------------------|

Bass
G----------------------------|
D----------------------------|
A----------------------------|
E-0--------------------------|

Riff1x15
Riff2x4
Riff3x4
Riff1x4
Riff2x4

Riff3x4
fade out)

GENTLEMEN

Riff1
----------------------------------------------------------------------------|
----------------------------------------------------------------------------|
-4-4-4-/9-9-9-9--4-4-4-/7-7-7-/12---4--4-4-/9-9-9-9--7-7-7-7-7-7-7--/12-/14-|
----------------------------------------------------------------------------|
-2-2-2-/7-7-7-7--2-2-2-/5-5-5-/10---2--2-2-/7-7-7-7--5-5-5-5-5-5-5--/10-/12-|
----------------------------------------------------------------------------|
Continued...
--------------------------------------------------------------------|
--------------------------------------------------------------------|
-4-4-4-/9-9-9-9--4-4-4-/7-7-7-/12---4--4-4-/9-9-9-9--7-5-4-b-4-4----|
--------------------------------------------------------------------|
-2-2-2-/7-7-7-7--2-2-2-/5-5-5-/10---2--2-2-/7-7-7-7--5-3-2-b-2-2----|
--------------------------------------------------------------------|