AFI - 6 To 8 Text Bass Tab

Learn the song with the online tablature player
Band: AFI
Song: 6 to 8

Intro
----------------|----------------------|------------|
-5h7-----5h7----|----------------------|---5h7------|
-----0-------0--|---0--3--5---0--3--5--|-------0----|
----------------|----------------------|------------|

Verse
------------------------------------------------------------4-3--------|
-------------2p0---------------------------2p0------------------4-2----|
-0-0---2-3-3-----3-----4-5-5---0-0---2-3-3-----3-----4-5-5-------------|
-------------------3-3---------------------------3-3-------------------|

-----------------------------------------------------------------------|
-------------2p0---------------------------2p0-------------------------|
-0-0---2-3-3-----3-----4-5-5---0-0---2-3-3-----3-----4-5-5-555555------|
-------------------3-3---------------------------3-3-------------------|

Chorus
-----------------------------------------|
-----------------------------------------|
-333333-----------------5h7-5h7----------|x4
--------3-333333-2-0000---------00000000-|

Verse
---------------------------------------------------------------4-2--------|
-------------2p0-------------------------------2p0-----------------4-2----|
-0-0---2-3-3-----3-----4-5-5-------0-0---2-3-3-----3-----4-5-5------------|
-------------------3-3-------2-3-3------------------3-3-------------------|

--------------------------------------------------------------------------|
-------------2p0-------------------------------2p0------------------------|
-0-0---2-3-3-----3-----4-5-5-------0-0---2-3-3-----3-----4-5-5-555555-----|
-------------------3-3-------2-3-3------------------3-3-------------------|

Chorus
---------------------------------------------|
---------------------------------------------|
-333333-----------------5h7-5h7--------------|x4
--------3-333333-2-0000---------00000000-----|

Bridge
-----------------------------------------|
-----------------------------------------|
-0-000000-3-333333-5-555555555555555-----|x4
-----------------------------------------|

Chorus
-----------------------------------------------|
-----------------------------------------------|
-333333-----------------5h7-5h7--------------x2|
--------3-333333-2-0000---------00000000-------|

---------------------------------------------------|
---------------------------------------------------|
-333333-----------------5h7-5h7----------333333----|
--------3-333333-2-0000---------00000000-----------|

Outro
-----------------------------------|-----------------------|-----------|
-----------------------------------|-----------------------|-----------|
------------0-3333333333-----------|----------5h7-5h7----x8|--3--------|
-0000000000--------------33333333--|-00000000--------------|-----3--0--|