AFI - Hearts Frozen Soil Sod Once More By The Spring Of Rage Despair And Hoplessness Text Guitar Tab

Learn the song with the online tablature player
+=eighth rest *=half ==whole

INTRO
e|------------------------------------------------------------------------|
B|--whole rest-------------55555555---------------------------------------|
G|--=------------44444444--77777777--99999999--55555555-------------------|
D|---------------55555555--77777777--99999999--55555555-------------------|
A|---------------55555555--55555555--77777777--33333333-------------------|
E|---------------33333333--55555555--77777777--33333333-------------------|

e|-----------------------11111111--00000000-------------------------------|
B|-------------55555555--11111111--00000000-------------------------------|
G|---44444444--77777777--22222222--11111111-------------------------------|
D|---55555555--77777777--33333333--22222222-------------------------------|
A|---55555555--55555555--33333333--22222222-------------------------------|
E|---33333333--55555555--11111111--00000000-------------------------------|

VERSE
all mutes are 16th notes       on this slide slide out of downwards
e|--0-----------------0-----------------0--------------------------------|
B|--0-----------------0-----------------0--------------------------------|
G|--1-+-------5--4(4)\1-+------5--4(4)\-1-+-------5--4(4)\--7777---------|
D|--2-----xx--5--5(5)\2----xx--5--5(5)\-2-----xx--5--5(5)\--7777---=-----|
A|--2-----xx--3--5(5)\2----xx--3--5(5)\-2-----xx--3--5(5)\--5555---------|
E|--0-----xx--3--3(3)\0----xx--3--3(3)\-0-----xx--3--3(3)\--5555---------|

OUTRO
x2 whole note   slide out of down
e|-------------------------------------------|-3---------3\--------------|
B|-------------55555555----------------------|-3---------3\--------------|
G|---44444444--77777777--99999999--55555555--|-4---------4\--------------|
D|---55555555--77777777--99999999--55555555--|-5---------5\--------------|
A|---55555555--55555555--77777777--33333333--|-5---------5\--------------|
E|---33333333--55555555--77777777--33333333--|-3---------3\--------------|

TA-DAA!!
LYRICS:

INTRO
Whoah!
I will die screaming!
Whaoh!

VERSE
Scream my life away.
In useless anguish.
Tear the sun from the skyyyyy!

OUTRO
Whoah!
I will die screaming!
Whoah!
Die screamin'!

Hope ya liked it!