AFI - Keeping Out Of Direct Sunlight Text Guitar Tab

Learn the song with the online tablature player
  Intro
E|-------------------|
B|-------------------|
G|-------------------|
D|-----8-------------|
A|>>-7-6-7-----5-7~~-|
E|>>-5---5-----3-5~~-|
               .

  Verse
E|------------------------------------------------|
B|------------------------------------------------|
G|------------------------------------------------|
D|----------8------------------8------------------|
A|>>-7------6-7---5-5-5-5---7--6-7>>-12-10-9-757--|
E|>>-5--------5---3-3-3-3---5----5>>-10--8-7-535--|

  Time change
E|-----------------------------------------------------------|
B|-----------------------------------------------------------|
G|-----------------------------------------------------------|
D|---------9-1010101010101010-----------10101010-------------|
A|-7777777-7--8-8-8-8-8-8-8-8-77777777--8-8-8-8--5555-777777-|
E|-5555555--------------------55555555-----------3333-555555-|

E|----------------------------------------------------|
B|----------------------------------------------------|
G|----------------------------------------------------|
D|--9-1010101010101010------------------10101010-9999-|
A|--7--8-8-8-8-8-8-8-8-1010101010101010--8-8-8-8-7777-|
E|----------------------8-8-8-8-8-8-8-8---------------|

  Outro
E|---------------|
B|---------------|
G|---------------|
D|-----8---------|
A|---7-6-7-----5-|
E|---5---5-----3-|x2
               .

E|-----------------|
B|-----------------|
G|-----------------|
D|-5-5-5--7--------|
A|-3-3-3--5--5-5-5-|
E|-----------3-3-3-|

E|---------------|
B|---------------|
G|---------------|
D|-----8---------|
A|---7-6-7-----5-|
E|---5---5-----3-|x2
               .

E|-------------------------|
B|-------------------------|
G|-------------------------|
D|-5-5-5--7---------555555-|
A|-3-3-3--5--5-5-5--333333-|
E|-----------3-3-3---------|
                    ......

There you go... have fun...