AFI - Lower It Text Bass Tab

Learn the song with the online tablature player
Verse/Intro x5
G--------------------------------------------------|
D--------------------------------------------------|
A-5-------------1111-3333--5-------------1111------|
E---3333-6-3333--------------3333-6-3333------1111-|

Chorus x2
G----------------------------------------------------|
D----------------------------------------------------|
A-555-555~-666-555555-1111-3333--5555555-33333-1111--|
E----------------------------------------------------|

Verse after 1st chorus X1
G-----------------------------------------------------------|
D-----------------------------------------------------------|
A-5-------------1111-3333--5-------------1111--10-10-10-10--|
E---3333-6-3333--------------3333-6-3333--------------------|

Verse x2
Chorus x2

Bridge
G---------------------------------------------------------------------------|
D---------------------------------------------------------------------------|
A-555555-1111-3333-555555-3333-1111-5555555-1111-3333-555555----------------|
E--------------------------------------------------------------6-6-6-6-6-6--|

fill thing after guitar riff
G------|
D------|
A-5420-
E------

Chorus x2

Coda x2
G-------3333-2222-1111--------------------------------|
D-55555-----------------------------------------------|
A----------------------1111111-33333-xxxxx555xxxxx555-|
E-----------------------------------------------------|

last time
G---------------------------------------|
D---------------------------------------|
A-xxxxx555-xxxxx555-xxxx555-xxxxx555-55-|
E---------------------------------------|
Enjoy Wolfe.G