AFI - Miseria Cantare (The Beginning) Text Guitar Tab

Learn the song with the online tablature player
Listen to Song for Timing on Everything

Intro
Chords used in Verse and Chorus (Repeat until Outro)
|---7~~---7--------10-10---x-----5----5-5---x--7~~-------------------|
|---8~~---8--------12-12---x-----7----7-7---x--8~~-------------------|
|---9~~---9--------12-12---x-----7----7-7---x--9~~-------------------|
|---9~~---9--------12-12---x-----7----7-7---x--9~~-------------------|
|---7~~---7--------10-10---x-----5----5-5---x--7~~-------------------|
|---7~~---7--------10-10---x-----5----5-5---x--7~~-------------------|

Outro
may seem odd, but its correct
|--------------------------------------|
|--------------------------------------|
|---12-12-1211-11-1112-12-1214-14-14---|
|---x--x--x-x--x--x-x--x--x-x--x--x----|
|---10-10-109--9--9-10-10-1012-12-12---|
|--------------------------------------|

|--------------------------------------|
|--------------------------------------|
|---12-12-1211-11-1112-12-1216-16-16---|
|----x-x--x-x--x--x-x--x--x-x--x--x----|
|---10-10-109--9--9-10-10-1014-14-14---|
|--------------------------------------|

|--------------------------------------|
|--------------------------------------|
|---12-12-1211-11-1112-12-1214-14-14---|
|---x--x--x-x--x--x-x--x--x-x--x--x----|
|---10-10-109--9--9-10-10-1012-12-12---|
|--------------------------------------|

|---------------------------------------|
|---------------------------------------|
|---12-12-1211-11-1112-12-1216-16-16-8--|
|----x-x--x-x--x--x-x--x--x-x--x--x--8--|
|---10-10-109--9--9-10-10-1014-14-14-6--|
|---------------------------------------|