AFI - Self Pity Text Guitar Tab

Learn the song with the online tablature player
Intro/verse:
E|--------------------------------------------------------|
B|--------------------------------------------------------|
G|-11-1111111111----------9-999999-6-666666---------------|
D|-11-1111111111-7-777777-9-999999-6-666666---------------| (4 X)
A|--9--9-9-9-9-9-7-777777-7-777777-4-444444---------------|
E|---------------5-555555---------------------------------|

Pre-chorus
E|-------------------------|
B|-------------------------|
G|-11---14-----------------|
D|-11---14---14---11-------| (2 X)
A|--9---12---14---11-------|
E|-----------12----9-------|

Chorus
e|----------------------------------------------------------------|
B|----------------------------------------------------------------|
G|-----11-11-11------11-11-11------11-11-11-12-12-12--------------|
D|-14--11-11-11--14--11-11-11--14--11-11-11-12-12-12--------------| (1 X)
A|-14---9--9--9--14---9--9--9--14---9--9--9-10-10-10--------------|
E|-12------------12------------12---------------------------------|

Verse
2 X)

Pre-chorus
2 X)

Chorus
1 X)

Verse
2 X)

Pre-chorus
2 X)

Chorus
2 X