AFI - Six To Eight Text Guitar Tab

Learn the song with the online tablature player
A Fire Inside, Six to Eight

Intro/verse
|--------------------------------|
|:------------------------------:|
|--------------------------------|
|--99-0-5-5-0-7-7-7-7-7777777-0--|
|:-00-0-0-0-0-0-0-0-0-0000000---:|
|--------------------------------|

verse/interlude
|--------------------------------------------------|
|:------------------------------------------------:|
|------2---2-4^2-----2---2-4^2---222222222222222---|
|--------2-------2-----2-------0-000000000000000---|
|:--0--------------3------------------------------:|
|--------------------------------------------------|

verse
|--------------------------------|
|:------------------------------:|
|--------------------------------|
|--99-0-5-5-0-7-7-7-7-7777777-0--|
|:-00-0-0-0-0-0-0-0-0-0000000---:|
|--------------------------------|

verse
|-------------------------------------------------------|
|:--10-10-10-10-10-10-10-10-55555555-8888888877777777--:|
|----9--9--9--9--9--9--9--9-55555555-7777777777777777---|
|----9--9--9--9--9--9--9--9-55555555-7777777777777777---|
|:-----------------------------------------------------:|
|-------------------------------------------------------|

verse
---------------------------------------------------|
-10-10-10-10-10-10-10-10-55555555-8888888877777777-|
--9--9--9--9--9--9--9--9-55555555-7777777777777777-|
--9--9--9--9--9--9--9--9-55555555-7777777777777777-|
------------------------------------------55555555-|
------------------------------------------55555555-|

chorus
------------------------------------|
------------------------------------|
-55555-------------7/9\7/9-22222-4--|
-55555-5555---2----x-x-x-x-22222-4--|
-33333-5555-5-2-22-5/7\5/7-00000-20-|
-33333-333332-0-00------------------|

chorus
-----------------------------------------|
-----------------------------------------|
55555-------------7/9\7/999-12-12-12-11--|
55555-5555---2----x-x-x-xxx--x--x--x--x--|
33333-5555-5-2-22-5/7\5/777-10-10-10--9--|
33333-333332-0-00------------------------|

chorus
------------------------------------|
------------------------------------|
-55555-------------7/9\7/9-22222-4--|
-55555-5555---2----x-x-x-x-22222-4--|
-33333-5555-5-2-22-5/7\5/7-00000-20-|
-33333-333332-0-00------------------|

chorus
-----------------------------------|
-----------------------------------|
55555-------------7/9\7/9999999999-|
55555-5555---2----x-x-x-xxxxxxxxxx-|
33333-5555-5-2-22-5/7\5/7777777777-|
33333-333332-0-00------------------|

verse
|-------------------------------------------------------|
|:--10-10-10-10-10-10-10-10-55555555-8888888877777777--:|
|----9--9--9--9--9--9--9--9-55555555-7777777777777777---|
|----9--9--9--9--9--9--9--9-55555555-7777777777777777---|
|:-----------------------------------------------------:|
|-------------------------------------------------------|

verse
---------------------------------------------------|
-10-10-10-10-10-10-10-10-55555555-8888888877777777-|
--9--9--9--9--9--9--9--9-55555555-7777777777777777-|
--9--9--9--9--9--9--9--9-55555555-7777777777777777-|
------------------------------------------55555555-|
------------------------------------------55555555-|

chorus
------------------------------------|
------------------------------------|
-55555-------------7/9\7/9-22222-4--|
-55555-5555---2----x-x-x-x-22222-4--|
-33333-5555-5-2-22-5/7\5/7-00000-20-|
-33333-333332-0-00------------------|

chorus
-----------------------------------------|
-----------------------------------------|
55555-------------7/9\7/999-12-12-12-11--|
55555-5555---2----x-x-x-xxx--x--x--x--x--|
33333-5555-5-2-22-5/7\5/777-10-10-10--9--|
33333-333332-0-00------------------------|

chorus
------------------------------------|
------------------------------------|
-55555-------------7/9\7/9-22222-4--|
-55555-5555---2----x-x-x-x-22222-4--|
-33333-5555-5-2-22-5/7\5/7-00000-20-|
-33333-333332-0-00------------------|

chorus
-----------------------------------|
-----------------------------------|
55555-------------7/9\7/9999999999-|
55555-5555---2----x-x-x-xxxxxxxxxx-|
33333-5555-5-2-22-5/7\5/7777777777-|
33333-333332-0-00------------------|

interlude
|--------------------------------------------------|
|:------------------------------------------------:|
|------2---2-4^2-----2---2-4^2---222222222222222---|
|--------2-------2-----2-------0-000000000000000---|
|:--0--------------3-------------000000000000000--:|
|--------------------------------------------------|

interlude
------------------------------------------------|
------------------------------------------------|
-----2---2-4^2-----2---2-4^2---2222222244444444-|
-------2-------2-----2-------0-00000000xxxxxxxx-|
--0--------------3-------------0000000022222222-|
------------------------------------------------|

chorus
------------------------------------|
------------------------------------|
-55555-------------7/9\7/9-22222-4--|
-55555-5555---2----x-x-x-x-22222-4--|
-33333-5555-5-2-22-5/7\5/7-00000-20-|
-33333-333332-0-00------------------|

chorus
-----------------------------------------|
-----------------------------------------|
55555-------------7/9\7/999-12-12-12-11--|
55555-5555---2----x-x-x-xxx--x--x--x--x--|
33333-5555-5-2-22-5/7\5/777-10-10-10--9--|
33333-333332-0-00------------------------|

chorus
------------------------------------|
------------------------------------|
-55555-------------7/9\7/9-22222-4--|
-55555-5555---2----x-x-x-x-22222-4--|
-33333-5555-5-2-22-5/7\5/7-00000-20-|
-33333-333332-0-00------------------|

chorus
--------------------------|
--------------------------|
55555---PM----------------|
33333---22222222222222222-|
33333---00000000000000000-|

Chorus/OUTRO, Guitar 1
------------------------------------|
------------------------------------|
-55555-------------7/9\7/9-22222-4--|
-55555-5555---2----x-x-x-x-22222-4--|
-33333-5555-5-2-22-5/7\5/7-00000-20-|
-33333-333332-0-00------------------|

Chorus/OUTRO, Guitar 1
-----------------------------------------|
-----------------------------------------|
55555-------------7/9\7/999-12-12-12-11--|
55555-5555---2----x-x-x-xxx--x--x--x--x--|
33333-5555-5-2-22-5/7\5/777-10-10-10--9--|
33333-333332-0-00------------------------|

Chorus/OUTRO, Guitar 1
------------------------------------|
------------------------------------|
-55555-------------7/9\7/9-22222-4--|
-55555-5555---2----x-x-x-x-22222-4--|
-33333-5555-5-2-22-5/7\5/7-00000-20-|
-33333-333332-0-00------------------|

Chorus/OUTRO, Guitar 1
----------------------------------|
----------------------------------|
5---------------------------------|
5-----5--------2------------------|
3-----5--------2------------------|
3-----3--------0------------------|

solo/ending for guitar two is waaaaay to fucking hard on acoustic.
I need a 22 fret electric to figure out this solo, which I could if I had that kind of
guitar. But hey, 99% of the song is here, so, enjoy the proper tab o’ 628