AFI - Whatever I Do Text Guitar Tab

Learn the song with the online tablature player
VERSE INTRO
e-|----------------------------------------------------------------------
B-|----------------------------------------------------------------------
G-|----7-7-7-7-7--10--7-7-7-7-7---10-------------------------------------
D-|----7-7-7-7-7--10--7-7-7-7-7---10--10---------------------------------
A-|----5-5-5-5-5--8---5-5-5-5-5---8---10---------------------------------
E-|-----------------------------------8----------------------------------

CHORUS
e-|----------------------------------------------------------------------
B-|----------------------------------------------------------------------
G-|----7-7-7-7------5---------7-7----------------------------------------
D-|----7-7-7-7---7--5--7--5---7-7----------------------------------------
A-|----5-5-5-5---7--3--7--5---5-5----------------------------------------
E-|--------------5-----5--3----------------------------------------------

OUTRO
e-|----------------------------------------------------------------------
B-|----------------------------------------------------------------------
G-|----7-7-7-7-7--10--7-7-7-7-7---10------9------7-----------------------
D-|----7-7-7-7-7--10--7-7-7-7-7---10--10--9--7---7-----------------------
A-|----5-5-5-5-5--8---5-5-5-5-5---8---10--7--7---5-----------------------
E-|-----------------------------------8------5---------------------------