Afroman - Colt 45 Text Guitar Tab

Learn the song with the online tablature player
Colt 45 - Afroman

Riff 1
G|---------------------------------------------------------------------------|
D|-------------5h7-7-5h7-----------------------------------------------------|
A|------5-7-7----------------------------------------------------------------|
E|-5-78----------------------------------------------------------------------|

Riff 2
G|---------------------------------------------------------------------------|
D|---------------------------------------------------------------------------|
A|------5-7-7-777-5----------------------------------------------------------|
E|-5-78-------------8-7------------------------------------------------------|

alternate between the two riffs and listen to the timing and thats it.

| /  slide up
| \  slide down
| h  hammer-on
| p  pull-off
| ~  vibrato
| +  harmonic
| x  Mute note