Afromania - Minna No Peace Text Guitar Tab

Learn the song with the online tablature player
MINNA NO PEACE - Afromania

2/4

G|---------------------------------------------------------------|
D|---------------------------------------------------------------|
A|---5~--------3~------------1~----------------------------------|
E|-----------------------------------------1~--------------------|

G|--------------------------2------3---2-------------------------|
D|-----------------------------3-----------3---0-----------------|
A|---5~--3~--1~--------------------------------------------------|
E|---------------------------------------------------------------|
                               1st     2nd
G|---------------------------|-----|-----3--3--|
D|---0--0--------------------|-----|-----------|    x2
A|--------3--3-1--1-1-1-1-1-1|-3---|-----------|
E|---------------------------|-----|-----------|

G|-----------------------------------------------------------------|
D|--------------------------------0--0-0-0-0-0-0-0-0---------------|
A|----------------3--3-3-3-3-3-3---------------------1--1-1-1-1-1-1| x2
E|-1--1-1-1-1-1-1--------------------------------------------------|

G|--------------------0-0-----------------------------------------|
D|------3--2---------------3--------3--2-----------3--------------|
A|------------3--0-0-----------3-3--------3-----------0-----------|
E|-1----------------------------------------1--1---------3--------|

G|-------------------0-0----------------------2--0----------------|
D|------3--2--------------3-------3--2--------------3-------------|
A|------------3--0-0-----------3--------3-------------------------|
E|-1--1------------------------------------1----------------------|

G|-----------------------------------------------------------------------|
D|--0--0-0-0------------------------------------0-0-0-0---------0--------|
A|------------3--3-3-3-3---1--1-1-1----------0-----------3-3-3----3--1---|
E|----------------------------------1-1-1-1----------------------------1-|

G|------------------------------3--2-------------5--5------------|
D|------------------------------------0--------------------------|
A|-1--1-1-1----------------1----------------3--------------------|
E|-----------1--1--1-1-1-----------------------------------------|

G|---------------------------------------------------------------|
D|---------------------------------------------------------------|
A|--5--5--5-5----3-3-3-3-3-3--1--1--1-1--------------------------|
E|---------------------------------------1-1-1-1-1-1-1-----------|

G|---------------------------------------------------------------|
D|--0-0-0--------------------------------------------3-----------|
A|---------3--3--3--3-3-3---1--0--1--0--1--0--1--0---------------|
E|---------------------------------------------------------------|

G|-----------------------------------------------------------------|
D|-----------------------------------------------------------------|
A|-----------------1-1-1-1-1-1-1-1-3-3-3-3-3-3-3-3-----------------|
E|-1-1-1-1-1-1-1-1---------------------------------1-1-1-1-1-1-1-1-|

G|----------------------------------3--2------3--2---------------|
D|-0-0-0-0-0-0-0-0------------------------3---------3------------|
A|-----------------3-3-3-3-3-3-3-3-----------------------3-------|
E|---------------------------------------------------------------|

G|--------------------------------------0-----------------------|
D|-------------------------------------------3--------------3---|
A|-3-----------1---------------------------------3--------------|
E|-------------------------1------1-----------------------------|

G|---------------------------------------------------------------|
D|---------------------------------------------------------------|
A|-1--1-1-1------------------3--3-3-3----------------------------|
E|-----------1--1--1-1-1-1-------------1--1--1-1-1-1-------------|

G|-----------------------------------------------------------------|
D|------------------------------------------------------------3----|
A|-1--1-1-1-1-----------------3--3--3-3-3-3--0--0--0-0-0---------1-|
E|-------------1--1--1-1-1-1-------------------------------3-------|

G|---------------------------------------------------------------|
D|---------------------------------------------------------------|
A|-------------3--3-3-3--------------1--1-1-1-1------------------|
E|-1--1-1-1-1------------1--1-1-1-1--------------1--1-1-1-1------|

G|-----------------------------------5----5----------------------|
D|----------3--2---0-----------2---------------------------------|
A|--3--------------------3---------------------------------------|
E|---------------------------------------------------------------|

G|---------------------------------------------------------------|
D|---------------------------------------------------0-----------|
A|---5----------3---------1----------------3---------------------|
E|--------------------------------1------------------------------|

G|-------7----7h10-------7-----7h9-------------------------------|
D|---------------------------------------10----------------------|
A|---------------------------------------------------8\----------|
E|---------------------------------------------------------------|

G|------------------------------5|
D|------8--7------8--7------8----|
A|------------8---------8--------|
E|--6----------------------------|

G|-----------------------------------------------------------------|
D|-----------------------------------------------------------------|
A|-----------------1-1-1-1-1-1-1-1-3-3-3-3-3-3-3-3-----------------|
E|-1-1-1-1-1-1-1-1---------------------------------1-1-1-1-1-1-1-1-|

G|---------------------------------------------------------------|
D|-0-0-0-0-0-0-0-0------------------------------------3----------|
A|-----------------3-3-3-3-3-3-3-3---1-0-1-0-1-0-1-0-------------|
E|---------------------------------------------------------------|

G|-----------------------------------------------------------------|
D|-----------------------------------------------------------------|
A|-----------------1-1-1-1-1-1-1-1-3-3-3-3-3-3-3-3-----------------|
E|-1-1-1-1-1-1-1-1---------------------------------1-1-1-1-1-1-1-1-|

G|------------------------------5--------------------------------|
D|-0-0-0-0-0-0-0-0-----------------------------3-3-3-3-3-3-3-3---|
A|------------------3-3-3-3-3-3--3-----1-1-3-3-------------------|
E|---------------------------------------------------------------|

G|-------------------------------------------|
D|----------------------3---------3---3-3-3--|
A|-----------------------------3-------------|
E|-1~---------1~------1----------------------|

G|---------------------------------------------------------------------|
D|---------------------------------------------------------------------|
A|------------1-1-3-3---------------1-1-3-3----------------1-1-3-3-----|
E|-1-1-1-1-1----------1---1-1-1-1-1---------1---1-1-1-1-1---------1----|

G|--------------------------|
D|----------------3---------|
A|-1-0----1--3-3------------|
E|-----1-------------1~~~~--|

| /  slide up
| \  slide down
| h  hammer-on
| p  pull-off
| ~  vibrato
| +  harmonic
| x  Mute note