Against All Authority - Policeman Text Guitar Tab

Learn the song with the online tablature player
                       POLICEMAN - Against All Authority

(play part before stars 4 times)
G|----------------------------*-----------------------------------------------|
D|----------------------------*-----------------------------------------------|
A|---------------------6-5-5--*-----------------------------------------------|
E|--5-5-5-1-4-4--5-5-5--------*--33333333333----------------------------------|

(play part before stars twice)
G|---------------*------------------------------------------------------------|
D|---------------*------------------------------------------------------------|
A|---------------*------------------------------------------------------------|
E|--5-5-5-1-4-4--*--33333333333-----------------------------------------------|

G|---------------------------------------------------------------------------|
D|---------------------------------------------------------------------------|
A|--------6-5-5--------6-5-5-------------------------------------------------|
E|--5-5-5--------5-5-5-------------------------------------------------------|

G|---------------------------------------------------------------------------|
D|---------------------------------------------------------------------------|
A|------------------3-3-3-3-3-3-3-3-------------------------5-5-5-5----------|
E|--5-5-5-5-5-5-5-5-----------------3-3-3-3-3-3-3-3-0-0-0-0------------------|

G|---------------------------------------------------------------------------|
D|---------------------------------------------------------------------------|
A|------------------3-3-3-3-3-3-3-3-2-2-2-2-2-2-2-2-3-3-3-3-3-3-3-3----------|
E|--5-5-5-5-5-5-5-5----------------------------------------------------------|

G|---------------------------------------------------------------------------|
D|---------------------------------------------------------------------------|
A|--2-2-2-2-2-2-2-2-3-3-3-3-3-3-3-3-2-2-3-3-2-2-3-3-2-2-3-3-2-2-3-3----------|
E|---------------------------------------------------------------------------|

REPEAT IT ALL ONCE