Against Me! - I Was A Teenage Anarchist Text Bass Tab

Learn the song with the online tablature player
Intro/Verse

Bass actually not heard at start but tabed here anyway:

G-----------|-----------|-----------|-----------|-----------|-----------|
D-----------|-----------|-----------|-----------|-----------|-----------|
A-----------|-----------|-----------|-----------|-----------|-----------|
E-6--6------|-----------|-6--6------|-----------|-6--6------|-----------|

                                          I was a teenage ...

G-----------|-----------|-----------|-----------|-----------|-----------|
D-----------|-----------|-----------|-----------|-----------|-----------|
A-----------|-----------|-----------|-----------|-----------|-----------|
E-6--6------|-----------|-3--3------|-----------|-3--3------|-----------|

Bass really joins in now:

G-----------|-----------|-----------|-----------|-----------|-----------|
D-----------|-----------|-----------|-----------|-----------|-----------|
A-----------|-----------|-----------|-----------|-----------|-----------|
E-6--6------|---------6-|-6--6------|-----------|-3--3------|---------3-|

G-----------|-----------|
D-----------|-----------|
A-----------|-----------|
E-3--3------|---------6-|

G-----------------|-----------------|-----------------|-----------------|
D-8-8-8-8-8-8-8-8-|-7-7-7-7-7-7-7-7-|-5-5-5-5-5-5-5-5-|-----------------|
A-----------------|-----------------|-----------------|-8-8-8-8-8-8-8-8-|
E-----------------|-----------------|-----------------|-----------------|

G-----------------|-----------------|-----------------|-----------------|
D-----------------|-----------------|-----------------|-----------------|
A-6-6-6-6-6-6-6-6-|-5-5-5-5-5-5-5-5-|-----------------|-----------------|
E-----------------|-----------------|-8-8-8-8-8-8-8-8-|-8-8-8-8-8-------|

Chorus

G-----------------|-----------------|-----------------|-----------------|
D-----------------|-----------------|-----------------|-----------------|
A-----------------|-8-8-8-8-8-8-8-8-|-6-6-6-6-6-6-6-6-|-5-5-5-5-5-5-5-5-|
E-6-6-6-6-6-6-6-6-|-----------------|-----------------|-----------------|

G-----------------|-----------------|-----------------|-----------------|
D-----------------|-----------------|-----------------|-----------------|
A-----------------|-8-8-8-8-8-8-8-8-|-6-6-6-6-6-6-6-6-|-5-5-5-5-5-5-5-5-|
E-6-6-6-6-6-6-6-6-|-----------------|-----------------|-----------------|

Verse

G------------|------------|------------|------------|
D------------|------------|------------|------------|
A------------|------------|------------|------------|
E-6-----6-6--|-6-----6-6--|-6-----6-6--|-6-----6-6--|

G------------|------------|------------|------------|
D------------|------------|------------|------------|
A------------|------------|------------|------------|
E-3-----3-3--|-3-----3-3--|-3-----3-3--|-3-----3-3--|

G------------|------------|------------|------------|
D------------|------------|------------|------------|
A------------|------------|------------|------------|
E-6-----6-6--|-6-----6-6--|-6-----6-6--|-6-6---6-6--|

G------------|------------|------------|------------|
D------------|------------|------------|------------|
A------------|------------|------------|-------6--5-|
E-3-----3-3--|-3-3---3-3--|-3-3---3-3--|-3--3-------|

Chorus

G-----------------|-----------------|-----------------|-----------------|
D-----------------|-----------------|-----------------|-----------------|
A-----------------|-8-8-8-8-8-8-8-8-|-6-6-6-6-6-6-6-6-|-5-5-5-5-5-5-5-5-|
E-6-6-6-6-6-6-6-6-|-----------------|-----------------|-----------------|

G-----------------|-----------------|-----------------|-----------------|
D-----------------|-----------------|-----------------|-----------------|
A-----------------|-8-8-8-8-8-8-8-8-|-6-6-6-6-6-6-6-6-|-5-5-5-5-5-5-5-5-|
E-6-6-6-6-6-6-6-6-|-----------------|-----------------|-----------------|

G-----------------|-----------------|-----------------|-----------------|
D-----------------|-----------------|-----------------|-----------------|
A-----------------|-8-8-8-8-8-8-8-8-|-6-6-6-6-6-6-6-6-|-5-5-5-5-5-5-5-5-|
E-6-6-6-6-6-6-6-6-|-----------------|-----------------|-----------------|

G-----------------|-----------------|-----------------|-----------------|
D-----------------|-----------------|-----------------|-----------------|
A-----------------|-----------------|-6-6-6-6-6-6-6-6-|-6-6-6-6-6-6-6-6-|
E-6-6-6-6-6-6-6-6-|-8-8-8-8-8-8-8-8-|-----------------|-----------------|

G-----------------|-----------------|-----------------|-----------------|
D-----------------|-----------------|-----------------|-----------------|
A-----------------|-----------------|-6-6-6-6-6-6-6-6-|-5-5-5-5-5-5-5-5-|
E-6-6-6-6-6-6-6-6-|-8-8-8-8-8-8-8-8-|-----------------|-----------------|

Guitar Solo

G-------------|-------------|-------------|-------------|
D-------------|-------------|-------------|-------------|
A-------------|-------------|-------------|-------------|
E-6----6--6-6-|-6----6--6-6-|-6----6--6-6-|-6-----6-----|

Bridge

G-----------------|-----------------|-----------------|-----------------|
D-----------------|-----------------|-----------------|-----------------|
A-----------------|-----------------|-----------------|-----------------|
E-3-3-3-3-3-3-3-3-|-3-3-3-3-3-3-3-3-|-3-3-3-3-3-3-3-3-|-3-3-3-3-3-3-3-3-|

G-----------------|-----------------|-----------------|-----------------|
D-----------------|-----------------|-----------------|-----------------|
A-----------------|-----------------|-----------------|-----------------|
E-8-8-8-8-8-8-8-8-|-8-8-8-8-8-8-8-8-|-8-8-8-8-8-8-8-8-|-8-8-8-8-8-8-8-8-|

G-----------------|-----------------|-----------------|-----------------|
D-----------------|-----------------|-----------------|-----------------|
A-6-6-6-6-6-6-6-6-|-6-6-6-6-6-6-6-6-|-6-6-6-6-6-6-6-6-|-6-6-6-6-6-6-6-6-|
E-----------------|-----------------|-----------------|-----------------|

G-----------------|-----------------|-----------------|-----------------|
D-----------------|-----------------|-----------------|-----------------|
A-8-8-8-8-8-8-8-8-|-8-8-8-8-8-8-8-8-|-8---------------|---------6---5---|
E-----------------|-----------------|-----------------|-----------------|

Chorus

G-----------------|-----------------|-----------------|-----------------|
D-----------------|-----------------|-----------------|-----------------|
A-----------------|-8-8-8-8-8-8-8-8-|-6-6-6-6-6-6-6-6-|-5-5-5-5-5-5-5-5-|
E-6-6-6-6-6-6-6-6-|-----------------|-----------------|-----------------|

G-----------------|-----------------|-----------------|-----------------|
D-----------------|-----------------|-----------------|-----------------|
A-----------------|-8-8-8-8-8-8-8-8-|-6-6-6-6-6-6-6-6-|-5-5-5-5-5-5-5-5-|
E-6-6-6-6-6-6-6-6-|-----------------|-----------------|-----------------|

G-----------------|-----------------|-----------------|-----------------|
D-----------------|-----------------|-----------------|-----------------|
A-----------------|-8-8-8-8-8-8-8-8-|-6-6-6-6-6-6-6-6-|-5-5-5-5-5-5-5-5-|
E-6-6-6-6-6-6-6-6-|-----------------|-----------------|-----------------|

G-----------------|-----------------|-----------------|-----------------|
D-----------------|-----------------|-----------------|-----------------|
A-----------------|-----------------|-6-6-6-6-6-6-6-6-|-6-6-6-6-6-6-6-6-|
E-6-6-6-6-6-6-6-6-|-8-8-8-8-8-8-8-8-|-----------------|-----------------|

G-----------------|-----------------|-----------------|-----------------|
D-----------------|-----------------|-----------------|-----------------|
A-----------------|-----------------|-6-6-6-6-6-6-6-6-|-6-6-6-6-6-6-6-6-|
E-6-6-6-6-6-6-6-6-|-8-8-8-8-8-8-8-8-|-----------------|-----------------|

G-----------------|-----------------|-----------------|-----------------|
D-----------------|-----------------|-----------------|-----------------|
A-----------------|-----------------|-6-6-6-6-6-6-6-6-|-6-6-6-6-6-6-6-6-|
E-6-6-6-6-6-6-6-6-|-8-8-8-8-8-8-8-8-|-----------------|-----------------|

Ending

G-------------|-------------|-------------|-------------|
D-------------|-------------|-------------|-------------|
A-------------|-------------|-------------|-------------|
E-6----6--6-6-|-6----6--6-6-|-6----6--6-6-|-6----6--6-6-|

G-------------|-------------|-------------|
D-------------|-------------|-------------|
A-------------|-------------|-------------|
E-6----6--6-6-|-6----6--6-6-|-6-----------|