Against Me! - Jordans First Choice Text Guitar Tab

Learn the song with the online tablature player
Song: Jordan’s First choice
Artist: Against Me

Chords used:  Dbm    Ab    A     B
             |-4-| |-4-| |-5-| |-7-|
             |-5-| |-4-| |-5-| |-7-|
             |-6-| |-5-| |-6-| |-8-|
             |-6-| |-6-| |-7-| |-9-|
             |-4-| |-6-| |-7-| |-9-|
             |---| |-4-| |-5-| |-7-|

Verse
.....................Hit the chords once but let them ring
|---------------4---------------4---------------5---------------7----------------|
|---------------5---------------4---------------5---------------7----------------|
|---------------6---------------5---------------6---------------8----------------|
|---------------6---------------6---------------7---------------9----------------|
|---------------4---------------6---------------7---------------9----------------|
|-------------------------------4---------------5---------------7----------------|
                How             compromise  yourself            like

|---------------4---------------4---------------5---------------7----------------|
|---------------5---------------4---------------5---------------7----------------|
|---------------6---------------5---------------6---------------8----------------|
|---------------6---------------6---------------7---------------9----------------|
|---------------4---------------6---------------7---------------9----------------|
|-------------------------------4---------------5---------------7----------------|
                How             anyone         aren’t        committed

|---------------4---------------4---------------5---------------7----------------|
|---------------5---------------4---------------5---------------7----------------|
|---------------6---------------5---------------6---------------8----------------|
|---------------6---------------6---------------7---------------9----------------|
|---------------4---------------6---------------7---------------9----------------|
|-------------------------------4---------------5---------------7----------------|
                Where           head            promise     yourself

|---------------4---------------4---------------5---------------7---------7------|
|---------------5---------------4---------------5---------------7---------7------|
|---------------6---------------5---------------6---------------8---------8------|
|---------------6---------------6---------------7---------------9---------9------|
|---------------4---------------6---------------7---------------9---------9------|
|-------------------------------4---------------5---------------7---------7------|
                don’t        forget           lesson          before      eyes
Pre-chorus
|-------4-------4-------4-------4-------4-------4-------4-------4-------4-------|
|-------4-------4-------4-------4-------4-------4-------4-------4-------4-------|
|-------5-------5-------5-------5-------5-------5-------5-------5-------5-------|
|-------6-------6-------6-------6-------6-------6-------6-------6-------6-------|
|-------6-------6-------6-------6-------6-------6-------6-------6-------6-------|
|-------4-------4-------4-------4-------4-------4-------4-------4-------4-------|
So you don’t    wake    up      to      re      gret    she’s  gone     years

|-------4-------4---4---4-------4---4---4-------4---4---4-------4---4---4-------|
|-------5-------5---5---5-------5---5---5-------5---5---5-------5---5---5-------|
|-------6-------6---6---6-------6---6---6-------6---6---6-------6---6---6-------|
|-------6-------6---6---6-------6---6---6-------6---6---6-------6---6---6-------|
|-------4-------4---4---4-------4---4---4-------4---4---4-------4---4---4-------|
|-------------------------------------------------------------------------------|
        Away...........................

|-------4-------4---4---4-------4---4---4-------4---4---4-------4---4---4-------|
|-------4-------4---4---4-------4---4---4-------4---4---4-------4---4---4-------|
|-------5-------5---5---5-------5---5---5-------5---5---5-------5---5---5-------|
|-------6-------6---6---6-------6---6---6-------6---6---6-------6---6---6-------|
|-------6-------6---6---6-------6---6---6-------6---6---6-------6---6---6-------|
|-------4-------4---4---4-------4---4---4-------4---4---4-------4---4---4-------|
        Dreams..........................

|-------4-------4---4---4-------4---4---4-------4---4---4-------4---4---4-------|
|-------5-------5---5---5-------5---5---5-------5---5---5-------5---5---5-------|
|-------6-------6---6---6-------6---6---6-------6---6---6-------6---6---6-------|
|-------6-------6---6---6-------6---6---6-------6---6---6-------6---6---6-------|
|-------4-------4---4---4-------4---4---4-------4---4---4-------4---4---4-------|
|-------------------------------------------------------------------------------|
      Together.........................................
Chorus
|------------------------------------------------------------------------------------|
|------------------------------------------------------------------------------------|
|------------------------------------------------------------------------------------|
|-7-7-7-7-7-7-7-7-7-7-7-7-7-7-7-7-7-7-7-7-7/9-9-9-9-9-9-9-9-9-9-9-9-9-9-9-9-9-9-9-9-9|
|-7-7-7-7-7-7-7-7-7-7-7-7-7-7-7-7-7-7-7-7-7/9-9-9-9-9-9-9-9-9-9-9-9-9-9-9-9-9-9-9-9-9|
|-5-5-5-5-5-5-5-5-5-5-5-5-5-5-5-5-5-5-5-5-5/7-7-7-7-7-7-7-7-7-7-7-7-7-7-7-7-7-7-7-7-7|
  Working......................           Enough...............................

|-----------------------------------------------7----------------------4-------------|
|-----------------------------------------------7----------------------4-------------|
|-----------------------------------------------8----------------------5-------------|
|-7-7-7-7-7-7-7-7-7-7-7-7-7-7-7-7-7-7-7-7-7/9---9----(let ring)--------6--(let ring)-|
|-7-7-7-7-7-7-7-7-7-7-7-7-7-7-7-7-7-7-7-7-7/9---9----------------------6-------------|
|-5-5-5-5-5-5-5-5-5-5-5-5-5-5-5-5-5-5-5-5-5/7---7----------------------4-------------|
  Put..........................   Responsibility................     Together

Verse
|---------------4---------------4---------------5---------------7----------------|
|---------------5---------------4---------------5---------------7----------------|
|---------------6---------------5---------------6---------------8----------------|
|---------------6---------------6---------------7---------------9----------------|
|---------------4---------------6---------------7---------------9----------------|
|-------------------------------4---------------5---------------7----------------|
                Reality         know          behind           idea

|---------------4---------------4---------------5---------------7----------------|
|---------------5---------------4---------------5---------------7----------------|
|---------------6---------------5---------------6---------------8----------------|
|---------------6---------------6---------------7---------------9----------------|
|---------------4---------------6---------------7---------------9----------------|
|-------------------------------4---------------5---------------7----------------|
              Society         security          self

|---------------4---------------4---------------5---------------7----------------|
|---------------5---------------4---------------5---------------7----------------|
|---------------6---------------5---------------6---------------8----------------|
|---------------6---------------6---------------7---------------9----------------|
|---------------4---------------6---------------7---------------9----------------|
|-------------------------------4---------------5---------------7----------------|
                Fucked          can’t           last            sense

|---------------4---------------4---------------5---------------7----------------|
|---------------5---------------4---------------5---------------7----------------|
|---------------6---------------5---------------6---------------8----------------|
|---------------6---------------6---------------7---------------9----------------|
|---------------4---------------6---------------7---------------9----------------|
|-------------------------------4---------------5---------------7----------------|
               Last             I             stand           myself

Pre-chorus
|-------4-------4---4---4-------4---4---4-------4---4---4-------4---4---4-------|
|-------4-------4---4---4-------4---4---4-------4---4---4-------4---4---4-------|
|-------5-------5---5---5-------5---5---5-------5---5---5-------5---5---5-------|
|-------6-------6---6---6-------6---6---6-------6---6---6-------6---6---6-------|
|-------6-------6---6---6-------6---6---6-------6---6---6-------6---6---6-------|
|-------4-------4---4---4-------4---4---4-------4---4---4-------4---4---4-------|
        Faces.................................

|-------4-------4---4---4-------4---4---4-------4---4---4-------4---4---4-------|
|-------5-------5---5---5-------5---5---5-------5---5---5-------5---5---5-------|
|-------6-------6---6---6-------6---6---6-------6---6---6-------6---6---6-------|
|-------6-------6---6---6-------6---6---6-------6---6---6-------6---6---6-------|
|-------4-------4---4---4-------4---4---4-------4---4---4-------4---4---4-------|
|-------------------------------------------------------------------------------|
       Change......................................

|-------4-------4---4---4-------4---4---4-------4---4---4-------4---4---4-------|
|-------4-------4---4---4-------4---4---4-------4---4---4-------4---4---4-------|
|-------5-------5---5---5-------5---5---5-------5---5---5-------5---5---5-------|
|-------6-------6---6---6-------6---6---6-------6---6---6-------6---6---6-------|
|-------6-------6---6---6-------6---6---6-------6---6---6-------6---6---6-------|
|-------4-------4---4---4-------4---4---4-------4---4---4-------4---4---4-------|
     Forgetting.....................................

|-------4-------4---4---4-------4---4---4-------4---4---4-------4---4---4-------|
|-------5-------5---5---5-------5---5---5-------5---5---5-------5---5---5-------|
|-------6-------6---6---6-------6---6---6-------6---6---6-------6---6---6-------|
|-------6-------6---6---6-------6---6---6-------6---6---6-------6---6---6-------|
|-------4-------4---4---4-------4---4---4-------4---4---4-------4---4---4-------|
|-------------------------------------------------------------------------------|
        From.........................................

Chorus
|------------------------------------------------------------------------------------|
|------------------------------------------------------------------------------------|
|------------------------------------------------------------------------------------|
|-7-7-7-7-7-7-7-7-7-7-7-7-7-7-7-7-7-7-7-7-7/9-9-9-9-9-9-9-9-9-9-9-9-9-9-9-9-9-9-9-9-9|
|-7-7-7-7-7-7-7-7-7-7-7-7-7-7-7-7-7-7-7-7-7/9-9-9-9-9-9-9-9-9-9-9-9-9-9-9-9-9-9-9-9-9|
|-5-5-5-5-5-5-5-5-5-5-5-5-5-5-5-5-5-5-5-5-5/7-7-7-7-7-7-7-7-7-7-7-7-7-7-7-7-7-7-7-7-7|
  Working......................           Enough...............................

|-----------------------------------------------7----------------------4-------------|
|-----------------------------------------------7----------------------4-------------|
|-----------------------------------------------8----------------------5-------------|
|-7-7-7-7-7-7-7-7-7-7-7-7-7-7-7-7-7-7-7-7-7/9---9----(let ring)--------6--(let ring)-|
|-7-7-7-7-7-7-7-7-7-7-7-7-7-7-7-7-7-7-7-7-7/9---9----------------------6-------------|
|-5-5-5-5-5-5-5-5-5-5-5-5-5-5-5-5-5-5-5-5-5/7---7----------------------4-------------|
  Put..........................   Responsibility................     Together

And that would be all she wrote right there. Oh and check out 3rd half of the 5th
on youtube trust me its funny.