Age Of Electric - I Dont Mind Text Guitar Tab

Learn the song with the online tablature player
Intro
g-----------------------------------
d-----------------------------------
a-4-4-4-4-4-4-4-4-x-x-x-x-x-x-x-x---
e-----------------------------------
   repeat 4x

verse riff
g------------------------------------
d------------------------------------
a-------------------4-4-4-4-4-4-4-4--
e-0-0-0-0--4-4-4-4-------------------

pre chorus: ("...your empty intentions...")
g-----------------------
d-----------------------
a-2-2-2-2---------------
e---------4-4-4-4-------

chorus
("I don't mind! I don't mind...")
g-----------------------------------------------------------------
d-----------------------------------------------------------------
a-4-4-4-4--2-2-2-2-----------------4-4-4-4------------------------
e------------------4-4-4-4-4-4-4-4---------2-2-2-2-4-4-4-4-4-4-4-4

bridge
(this is part where Todd sings "Hide it all away..."
g--------------------------------
d--------------------------------
a-4-4-4-4-4--2-2-2-2-2--3-3-3-3-3
e--------------------------------

outro
("Bolan is smiling down on me")
g---------------------------------
d---------------------------------
a------------------4-4-4-4-4-4-4-4
e-0-0-0-0--4-4-4-4----------------