Agent Orange - Mr Moto Text Guitar Tab

Learn the song with the online tablature player
                            MR. MOTO - Agent Orange

INTRO
e|------------------------------------------------------------------------|
B|------------------------------------------------------------------------|
G|-3--3--3---3-3--2-2-2-(2--2-2-2)--7-7-7-7--7-7-7-7--7-7-7-7--7-7-7-7----|
D|-3--3--3---3-3--2-2-2--0--0-0-0---7-7-7-7--7-7-7-7--7-7-7-7--7-7-7-7----|
A|-1--1--1---1-1--0-0-0--0--0-0-0---5-5-5-5--5-5-5-5--5-5-5-5--5-5-5-5----|
E|------------------------------------------------------------------------|

e|------------------------------------------------------------------------|
B|------------------------------------------------------------------------|
G|--------------------------------------------------7----7---7------------|
D|---7---7---7---7----7---7---7---7-----7---7---7-7-7--7-7-7-7-7-7---7----|
A|-5---5---5---5----5---5---5---5-----5---5---5---5(5)-5(5)5(5)5---5------|
E|------------------------------------------------------------------------|
   . . . . . . . .  . . . . . . . .   . . . . . .                . . .
MAIN RIFF:
e|------------------------------------------------------------------------|
B|------------------------------------------------------------------------|
G|----------------------------------------0-1-1-0---0---0---------0-------|
D|-0--0--3-5-3-/7-7-7-7-5-3-0---------0-3---------3---3---3---2-2---2-----|
A|----------------------------3---1-1-----------------------------------0-|
E|----------------------------------------------------------------------4-|

e|------------------------------------------------------------------------|
B|-------------------(3--3--3-3)------------------------------------------|
G|-------------------(2--2--2-2)------------------------------------------|
D|-------3--2--0~----(0--0--0-0)------------------------------------------|
A|-0-0-0------------------------------------------------------------------|
E|------------------------------------------------------------------------|

LEAD:
e|------------------------------------------------------------------------|
B|--------------------8-10-8--------------10101010101010101010101010101010|
G|---------7-9-7-9-10--------10-9----7-9--1010101010101010101010101010101-|
D|-10-9-10------------------------10------1010101010101010101010101010101-|
A|-----------------------------------------8-8-8-8-8-8-8-8-8-8-8-8-8-8-8--|
E|------------------------------------------------------------------------|

e|------------------------------------------------------------------------|
B|--------------------8-10-8--------------1010101010101010-9-9-9-9-9-9-9--|
G|---------7-9-7-9-10--------10-9----7-9--1010101010101010-9-9-9-9-9-9-9--|
D|-10-9-10------------------------10------1010101010101010-9-9-9-9-9-9-9--|
A|-----------------------------------------8-8-8-8-8-8-8-8-7-7-7-7-7-7-7--|
E|------------------------------------------------------------------------|

END:
e|------------------------------------------------------------------------|
B|-----------------7--7---------------------------------------------------|
G|-6--6-6-6-6-6-6--7--7---6--6-6-6--7~---7--5--5h7~-----------------------|
D|-7--7-7-7-7-7-7--7--7---7--7-7-7--8~------------------------------------|
A|-7--7-7-7-7-7-7--5--5---7--7-7-7--8~------------------------------------|
E|-5--5-5-5-5-5-5---------5--5-5-5--6~------------------------------------|

This is a cover of the Belaires' classic surf song. Naturally, Agent Orange's
is a bit simpler to play, although I think I like the original a bit more. Yeah,
I know, liking a version of a song because it has less distortion is lame, so sue
me. Anyways, I moved the solo down one string because even though it's easier to
play it starting at the 5th fret  C  on the third string, if you do that, it makes
it harder to get the full-sounding FII/EII chords. I'm babbling, and no one will
read this anyways. Whatever. The timing's off during the main riff, mostly because
on each time through, Mike Palm times the notes a little differently. Finally, play
the lead part ***ing fast to keep up with him, and tremolo pick the FII/EII chords.