Agnostic Front - Victim In Pain Text Guitar Tab

Learn the song with the online tablature player
                          VICTIM IN PAIN - Agnostic Front

Quick and easy classic.

INTRO
e|----------------|
B|----------------|
G|----------------|
D|----------------|
A|--9-------------|
E|--7-------------|

VERSE
e|------------------------|
B|------------------------|
G|------------------------|
D|------1111-77-99--------|
A|--99--9-9--55-77--------|
E|--77--------------------|

CHORUS
e|------------------------------|
B|------------------------------|
G|------------------------------|
D|------------------------------|
A|--9-9--7-7--2-2--9-9----------|
E|--7-7--5-5--0-0--7-7----------|

SONG STRUCTURE:
INTRO
VERSE x8
CHORUS x2
VERSE x6
CHORUS x2
VERSE x6`

And that's it!