Aiden - Teenage Queen Chords

Main Riff
 
No chord
    
Drop D guitar tuning
No capo

Intro 00

00-00:13
e|--------------------------------------------------------|
B|--------------------------------------------------------|
G|---10--9--10----10--12--14--12--10--9----10--9--10--9---|
D|---x---x--x-----x---x---x---x---x---x----x---x--x---x---|
A|---8---7--8-----8---10--12--10--8---7----8---7--8---7---|
D|--------------------------------------------------------|

Verse 00

14-00:46
e|----------------------------------------------------------|
B|----------------------------------------------------------|
G|----------------------------------------7--10-9--7--12-10-|
D|----------------------------------------x--x--x--x--x--x--|
A|--5--3--3-3-3-3-3-5------5--3--3--3-5---5--8--7--5--10-8--|
D|----------------------------------------------------------|
pm * * * * * *

Chorus 00

48-1:04
e|------------|
B|------------|
G|--10--9-----|    x3
D|--x---x---3-|
A|--8---7---3-|
D|----------3-|

Intro 1

05-1:17

Verse 1

18-1:41
e|------------------------------------------|
B|------------------------------------------|
G|------------------------7--10-9--7--12-10-|
D|------------------------x--x--x--x--x--x--|
A|--5--3--3-3-3-3-3-5-----5--8--7--5--10-8--|
E|------------------------------------------|
pm * * * *

Chorus 1

42-2:05
e|-------------|
B|-------------|
G|--10--9------|    x3
D|--x---x---3--|
A|--8---7---3--|
E|----------3--|

Bridge 2

06-2:41        i couldn't figure out the clean part
e|--------------------------------------------------|
B|--------------------------------------------------|
G|--------------------------------------------------|
D|--------------------------------------------------|
A|-5--3--1--0---------------------------------------|
E|--------------------------------------------------|

Chorus 2

48-3:09

Intro 3

10-3:26

All Content on this page is the property of the copyright owner of the original composition.