Air - Casanova 70 Text Guitar Tab

Learn the song with the online tablature player
Riff 1

G|-------------------------------------|
D|---------5-5-3-5--------3-5-3--------|
A|-----3h5------------3h5------5-3-----|
E|--3----------------------------------|

Fill 1 (e.g. 1:16-1:20)

G|-----------6-8-6--------------|
D|-------6-8-------8------------|
A|-6---6--------------8\--------|
E|-------------------------1----|

Fill 2 (e.g 2:28-2:32)

G|-------------8-6--------------|
D|-------6h7h8------8-----------|
A|-6---6--------------8\--------|
E|-------------------------1----|

Riff 2
from 4:25 to the end)

G|-------------------------------------------|
D|---------5--3-----------------5--3---------|
A|--------------5-3--------------------5-----|
E|--3---3----------------3---3---------------|

Progression:

Riff 1, Fill 1 x2
Riff 1, Fill 2 x3
Riff 2