Air Supply - Without You Text Guitar Tab

Learn the song with the online tablature player
Òô¹ì 1

G||------------------|--------------------|--10----------------|
D||------------------|--------------10----|--------------------|
A||------------------|--------------------|--------------------|
E||------------------|--------------------|--------------------|

----------------------|--------------------|-----------------------|
----------------------|--------------------|----------9--11--------|
--------10--12--------|--10----------------|--12-------------------|
----------------------|--------------------|-----------------------|

----------------------|-----------------------|-----------------------|
--12--------10--------|--9--------------------|-----------------------|
----------------------|---------12--10--------|--8---------8------10--|
----------------------|-----------------------|---------8-------------|

------------------------|----------------------|--------------------|
-------------10---------|----------------------|--------------------|
-------10---------------|--8------------8--10--|--12----------------|
--8----------------8----|----------------------|--------------------|

--------------------|-----------------------|-----------------------|
--------------------|----------9--11--------|-----------------------|
--10----------------|--12-------------------|-----------------------|
--------------------|-----------------------|--10------10--8--------|

-----------------------|-----------------------|-----------------------|
--9--------------------|-----------------------|-------------10--------|
---------12--10--------|--8---------8------10--|-------10--------------|
-----------------------|---------8-------------|--8--------------------|

-------------------|--------------------|--------------------|
-------------------|--------------------|--------------------|
--8----------------|--------------------|--10----------------|
-------------------|--10----------------|--------------------|

-------------------|-------------------|--------------------|
-------------------|-------------------|--------------------|
-------------------|--8----------------|--------------------|
--8----------------|-------------------|--10----------------|

--------------------|-------------------|------------------|
--------------------|-------------------|------------------|
--10----------------|-------------------|------------------|
--------------------|--8----------------|------------------|

---------------11--10--|-------------------|---------------------|
-----------------------|-------------------|---------------------|
--8--------------------|--8----------------|--8--------------10--|
-----------------------|-------------------|---------------------|

----------------------|--------------------|-----------------------|
----------------------|--------------------|----------9--11--------|
--12------------------|--10----------------|--12-------------------|
------------------10--|--------------------|-----------------------|

----------------------|-----------------------|-----------------------|
--12--------10--------|--9--------------------|-----------------------|
----------------------|---------12--10--------|--8---------8------10--|
----------------------|-----------------------|---------8-------------|

-----------------------|-------------------|--------------------|
-------------10--------|-------------------|--------------------|
-------10--------------|--8----------------|--------------------|
--8--------------------|-------------------|--10----------------|

--------------------|-------------------|-------------------|
--------------------|-------------------|-------------------|
--10----------------|-------------------|--8----------------|
--------------------|--8----------------|-------------------|

--------------------|--------------------|-------------------|
--------------------|--------------------|-------------------|
--------------------|--10----------------|-------------------|
--10----------------|--------------------|--8----------------|

-------------------|-------------------|-------------------|-------------------|
-------------------|-------------------|-------------------|-------------------|
--7----------------|-------------------|--9----------------|-------------------|
-------------------|--9----------------|-------------------|--7----------------|

-------------------|-------------------|-------------------|-------------------|
-------------------|-------------------|-------------------|-------------------|
--7----------------|-------------------|--9----------------|-------------------|
-------------------|--9----------------|-------------------|--7----------------|

------------------|-------------------|-------------------|-------------------|
------------------|-------------------|-------------------|-------------------|
------------------|--7----------------|-------------------|--9----------------|
------------------|-------------------|--9----------------|-------------------|

-------------------|-------------------|-------------------|-------------------|
-------------------|-------------------|-------------------|-------------------|
-------------------|--7----------------|-------------------|--9----------------|
--7----------------|-------------------|--9----------------|-------------------|

-------------------|--------------------|-----------------------|
-------------------|--------------------|-----------------------|
-------------------|--7--------6--------|-------6----8----11----|
--7----------------|--------------------|--9--------------------|

-------------------|-------------------|------------------||
-------------------|-------------------|------------------||
--9----------------|-------------------|------------------||
-------------------|--7----------------|------------------||