Aizo - Ang Mga Lalaki Ay Hindi Umiiyak Text Guitar Tab

Learn song with the online tabulature player
ANG MGA LALAKI AY HINDI UMIIYAK by Aizo


INTRO:

e|--------------------------------------------------------|
B|--------------------------------------------------------|
G|-5-5-5-4----5-5-5-4-------------------------------------| 4x
D|-5-5-5-4-5--5-5-5-4-5--3-3-3-3-3-3-3-3-5-5-5-5-5-5-5-5--|
A|-3-3-3-2-5--3-3-3-2-5--3-3-3-3-3-3-3-3-5-5-5-5-5-5-5-5--|
E|---------3----------3--1-1-1-1-1-1-1-1-3-3-3-3-3-3-3-3--|


VERSE:

e|--------------------------------------------------------|
B|--------------------------------------------------------|
G|-5-5-5-5-5-5-5-5--3-3-3-3-3-3-3-3-----------------------|
D|-5-5-5-5-5-5-5-5--3-3-3-3-3-3-3-3--3-3-3-3-3-3-3-3--5~--|
A|-3-3-3-3-3-3-3-3--1-1-1-1-1-1-1-1--3-3-3-3-3-3-3-3--5~--|
E|-----------------------------------1-1-1-1-1-1-1-1--3~--|

e|---------------------------------------------------------------------|
B|---------------------------------------------------------------------|
G|-5-5-5-5-5-5-5-5--3-3-3-3-3-3-3-3------------------------------------| 2x
D|-5-5-5-5-5-5-5-5--3-3-3-3-3-3-3-3--3-3-3-3-3-3-3-3--5-5-5-5-5-5-5-5--|
A|-3-3-3-3-3-3-3-3--1-1-1-1-1-1-1-1--3-3-3-3-3-3-3-3--5-5-5-5-5-5-5-5--|
E|-----------------------------------1-1-1-1-1-1-1-1--3-3-3-3-3-3-3-3--|


REFRAIN:

e|-------------|
B|-------------|
G|-------------| 3x
D|-7~--5~--3~--|
A|-7~--5~--3~--|
E|-5~--3~--1~--|

e|----------------------------------|
B|-------------------------------P--|
G|-------------------------------A--|
D|-7~--5~--3~--3-3-3-3-5-5-5-5-5-U--|
A|-7~--5~--3~--3-3-3-3-5-5-5-5-5-S--|
E|-5~--3~--1~--1-1-1-1-3-3-3-3-3-E--|


CHORUS:

e|-----------------------------------------|
B|-----------------------------------------|
G|-5-5-5-5--7-7-7-7--9-9-9-9--10-10-10-10--| 4x
D|-5-5-5-5--7-7-7-7--9-9-9-9--10-10-10-10--|
A|-3-3-3-3--5-5-5-5--7-7-7-7--8--8--8--8---|
E|-----------------------------------------|


OUTRO

e|---------------------------------------------------------------------|
B|---------------------------------------------------------------------|
G|-5-5-5-5-5-5-5-5--7-7-7-7-7-7-7-7------------------------------------| 4x
D|-5-5-5-5-5-5-5-5--7-7-7-7-7-7-7-7--7-7-7-7-7-7-7-7--5-5-5-5-5-5-5-5--|
A|-3-3-3-3-3-3-3-3--5-5-5-5-5-5-5-5--7-7-7-7-7-7-7-7--5-5-5-5-5-5-5-5--|
E|-----------------------------------5-5-5-5-5-5-5-5--3-3-3-3-3-3-3-3--|

e|----
B|----
G|-5~-
D|-5~-
A|-3~-
E|----

NITRAM
08:18 AM
12-26-08