Akon - Beautiful Text Guitar Tab

Learn song with the online tabulature player
this is my first tab so go easy on me.this is done by ear so some bits might sound 
the spacing and timing between notes is not shown so just improvise on timing.


Part 1

E |--11-11-8-8-------------------------------------------|
B |------------9-9-9-11-11-11-8-8-8-8-6-6-6-6-6-6--------|
G |------------------------------------------------------|
D |------------------------------------------------------|
A |------------------------------------------------------|
E |------------------------------------------------------|


Part 2

E |--11-11-8-8-------------------------------------------|
B |------------9-9-9-11-11-11-8-8-8-8-11-11-11-11-11-11--|
G |------------------------------------------------------|
D |------------------------------------------------------|
A |------------------------------------------------------|
E |------------------------------------------------------|