Alanis Morissette  - Underneath Text Guitar Tab

Learn song with the online tabulature player
Underneath
Alanis Morissette
Flavors of Entanglement
06/ 09/ 2008
tabbed by:
Benjamin Kuehn
email:be_kuehn@web.de

Notes:
It's a pretty easy song but you need a Delay Pedal to make it sound good.
The Tab isn't 100% correct, cuz it's hard to hear the exact notes because of the many 
that are used ;o)

Stardard tuning:  EADGBE

All Guitars:

CAPO 2

Verse

Guitar 1 (Use some Delay and stroke the chords once!)

|-0--2----|
|-3--2----|
|-0--0----| x4
|---------|
|---------|
|---------|

Chorus

Guitar 1

|-3-3-3-3-3-3-3-3--2-2-2-2-2-2-2-2--3-3-3-3-3-3-3-3--3-3-3-3-3-3-3-3-|
|-3-3-3-3-3-3-3-3--3-3-3-3-3-3-3-3--3-3-3-3-3-3-3-3--3-3-3-3-3-3-3-3-|
|-0-0-0-0-0-0-0-0--0-0-0-0-0-0-0-0--0-0-0-0-0-0-0-0--0-0-0-0-0-0-0-0-| x4
|-0-0-0-0-0-0-0-0--0-0-0-0-0-0-0-0-------------------2-2-2-2-2-2-2-2-|
|-----------------------------------3-3-3-3-3-3-3-3------------------|
|-3-3-3-3-3-3-3-3--3-3-3-3-3-3-3-3-----------------------------------|


Guitar 2

|-3-3-3-3-3-3-3-3--2-2-2-2-2-2-2-2--3-3-3-3-3-3-3-3--5-5-5-5-5-5-5-5-|
|-3-3-3-3-3-3-3-3--3-3-3-3-3-3-3-3--3-3-3-3-3-3-3-3--3-3-3-3-3-3-3-3-|
|--------------------------------------------------------------------| x4
|--------------------------------------------------------------------|
|--------------------------------------------------------------------|
|--------------------------------------------------------------------|

Bridge

Guitar 1 (Use some Delay) Note: Bridge isn't exactly correct!

|------0---------0---------0---------0----------0----------0---------0---------0-------|
|---10---10---10---10---10---10---10---10----10---10----10---10---10---10---10---10----|
|-0---------0---------9---------9---------11---------11---------9---------9------------| x4
|--------------------------------------------------------------------------------------|
|--------------------------------------------------------------------------------------|
|--------------------------------------------------------------------------------------|

Verse
Chorus
Verse
Chorus
BRidge
Instrumental (x2, Same Riff as Chorus!)
Chorus