Alexisonfire - This Could Be Anywhere In The World Chords

Main Riff
Main Riff
 
No chord
    
Standard guitar tuning:
E
A
D
G
B
E
No capo

Intro

00:00 – 00:18)
Eb|-----------------------|
Bb|-----------------------|
Gb|-7-7----7-7----7-7-7---|
Db|-7-7----7-7----7-7-7---|
Ab|-5-5----5-5----5-5-5---|
Eb|-----------------------|

Verse 1

00:18 – 00:57)
Eb|---------------------------------|
Bb|-10-----6-------10-----6-8-6-----|
Gb|----7-9---9-7-9----7-9-------9---|
Db|---------------------------------|
Ab|---------------------------------|
Eb|---------------------------------|
Eb|------------------------------|
Bb|-10-----6-------8-10-11-11\---|
Gb|----7-9---9-7-9---------------|
Db|------------------------------|
Ab|------------------------------|
Eb|------------------------------|
Eb|-------|
Bb|-------|
Gb|-7-7---|
Db|-7-7---|
Ab|-5-5---|
Eb|-------|
Eb|------------------------------------8888---|
Bb|---11-10-8--4-5-8888---11-10-8--4-5--------|
Gb|-7-------------------7---------------------|
Db|-------------------------------------------|
Ab|-------------------------------------------|
Eb|-------------------------------------------|
Eb|-------|
Bb|-------|
Gb|-7-7---|
Db|-7-7---|
Ab|-5-5---|
Eb|-------|
Eb|---------------------------------|
Bb|-10-----6-------10-----6-8-6-----|
Gb|----7-9---9-7-9----7-9-------9---|
Db|---------------------------------|
Ab|---------------------------------|
Eb|---------------------------------|
Eb|------------------------------|
Bb|-10-----6-------8-10-11-11\---|
Gb|----7-9---9-7-9---------------|
Db|------------------------------|
Ab|------------------------------|
Eb|------------------------------|

Chorus

00:57 – 01:30)
Eb|--------------------------------------------------------------------------|
Bb|--------------------------------------------------------------------------|
Gb|-7777--77-77-7-77---------------------------------------------------------| x2
Db|-7777--77-77-7-77-8888--88-88-8-88-5555--55-55-5-55-8888--8/11--1111-11---|
Ab|-5555--55-55-5-55-8888--88-88-8-88-5555--55-55-5-55-8888--8/11--1111-11---|
Eb|------------------6666--66-66-6-66-3333--33-33-3-33-6666--6/9---9-9--9----|
Eb|---------|
Bb|---------|
Gb|-7-7-7---|
Db|-7-7-7---|
Ab|-5-5-5---|
Eb|---------|

Verse 2

01:30 – 02:09)
Eb|---------------------------------|
Bb|-10-----6-------10-----6-8-6-----|
Gb|----7-9---9-7-9----7-9-------9---|
Db|---------------------------------|
Ab|---------------------------------|
Eb|---------------------------------|
Eb|------------------------------|
Bb|-10-----6-------8-10-11-11\---|
Gb|----7-9---9-7-9---------------|
Db|------------------------------|
Ab|------------------------------|
Eb|------------------------------|
Eb|-------|
Bb|-------|
Gb|-7-7---|
Db|-7-7---|
Ab|-5-5---|
Eb|-------|
Eb|------------------------------------8888---|
Bb|---11-10-8--4-5-8888---11-10-8--4-5--------|
Gb|-7-------------------7---------------------|
Db|-------------------------------------------|
Ab|-------------------------------------------|
Eb|-------------------------------------------|
Eb|-------|
Bb|-------|
Gb|-7-7---|
Db|-7-7---|
Ab|-5-5---|
Eb|-------|
Eb|---------------------------------|
Bb|-10-----6-------10-----6-8-6-----|
Gb|----7-9---9-7-9----7-9-------9---|
Db|---------------------------------|
Ab|---------------------------------|
Eb|---------------------------------|
Eb|------------------------------|
Bb|-10-----6-------8-10-11-11\---|
Gb|----7-9---9-7-9---------------|
Db|------------------------------|
Ab|------------------------------|
Eb|------------------------------|

Chorus 2

02:09 – 02:39)
Eb|--------------------------------------------------------------------------|
Bb|--------------------------------------------------------------------------|
Gb|-7777--77-77-7-77---------------------------------------------------------| x2
Db|-7777--77-77-7-77-8888--88-88-8-88-5555--55-55-5-55-8888--8/11--1111-11---|
Ab|-5555--55-55-5-55-8888--88-88-8-88-5555--55-55-5-55-8888--8/11--1111-11---|
Eb|------------------6666--66-66-6-66-3333--33-33-3-33-6666--6/9---9-9--9----|
Eb|---------|
Bb|---------|
Gb|-7-7-7---|
Db|-7-7-7---|
Ab|-5-5-5---|
Eb|---------|

Bridge

02:39 – 03:06)
Eb|-------------------------|
Bb|-------------------------|
Gb|-10-7----12-7-7/1010\7---|
Db|-x--x----x--x-x/x-x-\x---|
Ab|-8--5----10-5-5/8-8-\5---|
Eb|-------------------------|
Eb|--------------------------|
Bb|--------------------------|
Gb|-10-7---------------------|
Db|-x--x----8--88-5-55-555---|
Ab|-8--5----8--88-5-55-555---|
Eb|---------6--66-3-33-333---|
Eb|-------------------------|
Bb|-------------------------|
Gb|-10-7----12-7-7/1010\7---|
Db|-x--x----x--x-x/x-x-\x---|
Ab|-8--5----10-5-5/8-8-\5---|
Eb|-------------------------|
Eb|--------------------------|
Bb|--------------------------|
Gb|-10-7---------------------|
Db|-x--x----8--88-5-55-555---|
Ab|-8--5----8--88-5-55-555---|
Eb|---------6--66-3-33-333---|
Eb|----------------------------------------|
Bb|----------------------------------------|
Gb|-7-7-7-7\/77-7-77\/7-7-7-7--------------| x2
Db|-7-7-7-7\/77-7-77\/7-7-7-7-8--8-5-555---|
Ab|-5-5-5-5\/55-5-55\/5-5-5-5-8--8-5-555---|
Eb|---------------------------6--6-3-333---|

Interlude

03:06 – 03:14)
Eb|-----|
Bb|-6---|
Gb|-7---|
Db|-7---|
Ab|-5---|
Eb|-----|

Bridge 2

03:14 – 03:26)
Eb|---------------------------------------------|
Bb|---------------------------------------------|
Gb|-77-7-77-77-7-7-7-77-7-77-7------------------|
Db|-77-7-77-77-7-7-7-77-7-77-7-8--88-5-55-555---|
Ab|-55-5-55-55-5-5-5-55-5-55-5-8--88-5-55-555---|
Eb|----------------------------6--66-3-33-333---|
Eb|--------------------|
Bb|--------------------|
Gb|-77-7-77-77-7-7-7---|
Db|-77-7-77-77-7-7-7---|
Ab|-55-5-55-55-5-5-5---|
Eb|--------------------|

Chorus 3

03:26 – 04:03)
Eb|--------------------------------------------------------------------------|
Bb|--------------------------------------------------------------------------|
Gb|-7777--77-77-7-77---------------------------------------------------------| x2
Db|-7777--77-77-7-77-8888--88-88-8-88-5555--55-55-5-55-8888--8/11--1111-11---|
Ab|-5555--55-55-5-55-8888--88-88-8-88-5555--55-55-5-55-8888--8/11--1111-11---|
Eb|------------------6666--66-66-6-66-3333--33-33-3-33-6666--6/9---9-9--9----|
Eb|---------|
Bb|---------|
Gb|-7-7-7---|
Db|-7-7-7---|
Ab|-5-5-5---|
Eb|---------|
Guitar 2//////////////////////////////////////////////

Intro

00:00 – 00:18)
Eb|-----------------------|
Bb|-----------------------|
Gb|-7-7----7-7----7-7-7---|
Db|-7-7----7-7----7-7-7---|
Ab|-5-5----5-5----5-5-5---|
Eb|-5-5----5-5----5-5-5---|

Verse 1

00:18 – 00:57)
Eb|----------------------|
Bb|----------------------|
Gb|----------------------|
Db|-8---8---8---8--/10---|
Ab|-8---8---8---8--/10---|
Eb|-6---6---6---6--/8----|
Eb|-------|
Bb|-------|
Gb|-7-7---|
Db|-7-7---|
Ab|-5-5---|
Eb|-5-5---|
Eb|----------------------|
Bb|----------------------|
Gb|----------------------|
Db|-8---8---8---8--/10---|
Ab|-8---8---8---8--/10---|
Eb|-6---6---6---6--/8----|
Eb|-------|
Bb|-------|
Gb|-7-7---|
Db|-7-7---|
Ab|-5-5---|
Eb|-5-5---|
Eb|----------------------|
Bb|----------------------|
Gb|----------------------|
Db|-8---8---8---8--/10---|
Ab|-8---8---8---8--/10---|
Eb|-6---6---6---6--/8----|

Chorus

00:57 – 01:30)
Eb|--------------------------------------------------------------------------|
Bb|--------------------------------------------------------------------------|
Gb|-7777--77-77-7-77---------------------------------------------------------| x2
Db|-7777--77-77-7-77-8888--88-88-8-88-5555--55-55-5-55-8888--8/11--1111-11---|
Ab|-5555--55-55-5-55-8888--88-88-8-88-5555--55-55-5-55-8888--8/11--1111-11---|
Eb|-5555--55-55-5-55-6666--66-66-6-66-3333--33-33-3-33-6666--6/9---9-9--9----|
Eb|---------|
Bb|---------|
Gb|-7-7-7---|
Db|-7-7-7---|
Ab|-5-5-5---|
Eb|-5-5-5---|

Verse 2

01:30 – 02:09)
Eb|----------------------|
Bb|----------------------|
Gb|----------------------|
Db|-8---8---8---8--/10---|
Ab|-8---8---8---8--/10---|
Eb|-6---6---6---6--/8----|
Eb|-------|
Bb|-------|
Gb|-7-7---|
Db|-7-7---|
Ab|-5-5---|
Eb|-5-5---|
Eb|----------------------|
Bb|----------------------|
Gb|----------------------|
Db|-8---8---8---8--/10---|
Ab|-8---8---8---8--/10---|
Eb|-6---6---6---6--/8----|
Eb|-------|
Bb|-------|
Gb|-7-7---|
Db|-7-7---|
Ab|-5-5---|
Eb|-5-5---|
Eb|----------------------|
Bb|----------------------|
Gb|----------------------|
Db|-8---8---8---8--/10---|
Ab|-8---8---8---8--/10---|
Eb|-6---6---6---6--/8----|

Chorus 2

02:09 – 02:39)
Eb|--------------------------------------------------------------------------|
Bb|--------------------------------------------------------------------------|
Gb|-7777--77-77-7-77---------------------------------------------------------| x2
Db|-7777--77-77-7-77-8888--88-88-8-88-5555--55-55-5-55-8888--8/11--1111-11---|
Ab|-5555--55-55-5-55-8888--88-88-8-88-5555--55-55-5-55-8888--8/11--1111-11---|
Eb|-5555--55-55-5-55-6666--66-66-6-66-3333--33-33-3-33-6666--6/9---9-9--9----|
Eb|---------|
Bb|---------|
Gb|-7-7-7---|
Db|-7-7-7---|
Ab|-5-5-5---|
Eb|-5-5-5---|

Bridge

02:39 – 03:06)
Eb|------------------------|
Bb|------------------------|
Gb|-7-7----7-7--7-7-7--7---|
Db|-7-7----7-7--7-7-7--7---|
Ab|-5-5----5-5--5-5-5--5---|
Eb|-----00-----------------|
..Palm mute
Eb|-------------------------|
Bb|-------------------------|
Gb|-7-7---------------------|
Db|-x-x----8--88-5-55-555---|
Ab|-5-5----x--xx-x-xx-xxx---|
Eb|-----00-6--66-3-33-333---|
..Palm mute
Eb|------------------------|
Bb|------------------------|
Gb|-7-7----7-7--7-7-7--7---|
Db|-7-7----7-7--7-7-7--7---|
Ab|-5-5----5-5--5-5-5--5---|
Eb|-----00-----------------|
..Palm mute
Eb|-------------------------|
Bb|-------------------------|
Gb|-7-7---------------------|
Db|-x-x----8--88-5-55-555---|
Ab|-5-5----x--xx-x-xx-xxx---|
Eb|-----00-6--66-3-33-333---|
..Palm mute
Eb|----------------------------------------|
Bb|----------------------------------------|
Gb|-7-7-7-7\/77-7-77\/7-7-7-7-7------------| x2
Db|-x-x-x-x\/xx-x-xx\/x-x-x-x-7--5h7p5-5---|
Ab|-5-5-5-5\/55-5-55\/5-5-5-5-5------------|
Eb|---------------------------5------------|

Interlude

03:06 – 03:14)
Eb|-------------|
Bb|-6-------6---|
Gb|-7-------7---|
Db|-7-------7---|
Ab|-5-------5---|
Eb|-------------|

Bridge 2

03:14 – 03:26)
Eb|-----------------------------------------|
Bb|-----------------------------------------|
Gb|-77-7-77-77-7-7-7-77-7-77-7-7------------|
Db|-xx-x-xx-xx-x-x-x-xx-x-xx-x-7--5h7p5-5---|
Ab|-55-5-55-55-5-5-5-55-5-55-5-5------------|
Eb|----------------------------5------------|
Eb|--------------------|
Bb|--------------------|
Gb|-77-7-77-77-7-7-7---|
Db|-xx-x-xx-xx-x-x-x---|
Ab|-55-5-55-55-5-5-5---|
Eb|--------------------|

Chorus 3

03:26 – 04:03)
Eb|--------------------------------------------------------------------------|
Bb|--------------------------------------------------------------------------|
Gb|-7777--77-77-7-77---------------------------------------------------------| x2
Db|-7777--77-77-7-77-8888--88-88-8-88-5555--55-55-5-55-8888--8/11--1111-11---|
Ab|-5555--55-55-5-55-8888--88-88-8-88-5555--55-55-5-55-8888--8/11--1111-11---|
Eb|-5555--55-55-5-55-6666--66-66-6-66-3333--33-33-3-33-6666--6/9---9-9--9----|
Eb|---------|
Bb|---------|
Gb|-7-7-7---|
Db|-7-7-7---|
Ab|-5-5-5---|
Eb|-5-5-5---|

All Content on this page is the property of the copyright owner of the original composition.