Alice in Chains - Leave Me Alone Text Guitar Tab

Learn the song with the online tablature player
1/2 step down

Intro / Verse:

Eb:-------------------------------|
Bb:-------------------------------|
Gb:--------7----6----2--2--2------|
Db:---2----7----6----2--2--2--2---|
Ab:---2----5----4----0--4--0--2---|
Eb:---0-----------------------0---|

Chorus

Eb:--------------------------------------------------------------------|
Bb:--------------------------------------------------------------------|
Gb:--------------------------------------------------------------------|
Db:---5--------------------------7---------------------------------5---|
Ab:---5--------------------------7---------------------------------5---|
Eb:---3--------------------------5---------------------------------3---|
   Don't come over here when I say... Don't come over here when I say...

Play a 12 on the Bb string for the lead on the chorus.

For that little solo, lay the wah on heavy and mess with pinch harmonics
on the 5th fret of the Ab string.