Alicia Keys - Goodbye Text Guitar Tab

Learn the song with the online tablature player
                             Goodbye - Alicia Keys

real easy song t play once you get the hang of it! nice to sing too! i wrote it all
wrong last time so this is re-sub'd and alot better!x

INTRO
e|---------------------------------------------------------------------------|
B|--17----------17------------17--16-------------------------------------16--|
G|--------16--13-------16--13-----------16--13--13--16--------14--13--14-----|
D|--------------------------------------------------------16-----------------|
A|---------------------------------------------------------------------------|
E|---------------------------------------------------------------------------|

e|-------------------------------------------------9--11--12--14--16---------|
B|-16--17--16--17--16--17--16--17--16--17--16--17----------------------------|
G|---------------------------------------------------------------------------|
D|---------------------------------------------------------------------------|
A|---------------------------------------------------------------------------|
E|---------------------------------------------------------------------------|
|

Verse
How do you love someone,who hurts you oh so bad.......
e|---------------------------------------------------------------------------|
B|-5--------5-------5--4-----------------------------------------------------|
G|-----4--1----4--1---------4--1--1--4---------------------------------------|
D|---------------------------------------------4----1--2--5------------------|
A|---------------------------------------------------------------------------|
E|---------------------------------------------------------------------------|

e|---------------------------------------------------------------------------|
B|---------------------------------------------------------------------------|
G|--1--2--4--6--8--9--11--13-------------------------------------------------|
D|---------------------------------------------------------------------------|
A|---------------------------------------------------------------------------|
E|---------------------------------------------------------------------------|
Repeat verse part till end
theres an extra bit at the end of the chorus but i got stuck workin it out, :S.
if u no please e-mail me and let me no!