Alkaline Trio - Keep Em Coming Text Guitar Tab

Learn the song with the online tablature player
Listen to cd for strumming patterns, this song only has
3 different guitar pieces, intro/verse, end of verse and chorus
its an easy song you just have to listen to the cd.

INTRO/ VERSE

e|----------------------------|
b|----------------------------|
G|-9--7--6--7--7--------------|
d|-7--7--7--7--x--------------|
a|-------------5--------------|
E|----------------------------|

END OF VERSE
e|-------------------------------|
B|-------------------------------|
G|-9--7--------------------------|
D|-x--x--------------------------|
A|-7--5--------------------------|
E|-------------------------------|

CHORUS
e|-------------------------------|
B|-------------------------------|
G|-9--7--9--7--------------------|
D|-7--7--9--7--------------------|
A|-0--5--7--5--------------------|
E|-------------------------------|