Alkaline Trio - Old School Reasons Text Guitar Tab

Learn the song with the online tablature player
This is a long tab as I've put the lyrics underneath the chord changes, but it's
a good song, not the best off the album, but still worth a good listen. enjoy

|---------------
|---------------
|---7-7-----7-7-
|-7-7-7--2--7-7-
|-7-5-5--2--5-5-
|-5------0------ (x2)

---------7-7-7-7---------7-7-7-7----------------------------------
-7-7-7-7-7-7-7-7-2-2-2-2-7-7-7-7-7-7-7-7-7-7-7-7--2-2-2-2-2-2-2-2-
-7-7-7-7-5-5-5-5-2-2-2-2-5-5-5-5-7-7-7-7-7-7-7-7--2-2-2-2-2-2-2-2-
-5-5-5-5---------0-0-0-0---------5-5-5-5-5-5-5-5--0-0-0-0-0-0-0-0-
                                                  ^down strums

Verse
from the 3rd staff down, rhythm changes and he accents every 3rd chord strum
|--------------------------------------------------------------------
|--------------------------------------------------------------------
|----------------------------------7---------------------------7-----
|---------------7------------------7----------2----------------7-----
|---------------7------------------5----------2----------------5-----
|---------------5-----------------------------0----------------------
 I've got these thoughts in my head, dirty as f*ck and never leavin'
 and they're best left unsaid, all the drinks on your breath
got some shit on my chest suit, on my bag next to the monkeyness
|-----------------------------------------------------------------
|-----------------------------------------------------------------
|---------7-7-7-7---------7-7-7-7-------------------------7-7-7-7-
|-7-7-7-7-7-7-7-7-2-2-2-2-7-7-7-7-7-7-7-7-2-2-2-2-4-4-4-4-7-7-7-7-
|-7-7-7-7-5-5-5-5-2-2-2-2-5-5-5-5-7-7-7-7-2-2-2-2-4-4-4-4-5-5-5-5-
|-5-5-5-5---------0-0-0-0---------5-5-5-5-0-0-0-0-2-2-2-2---------

Verse
from 2nd staff, rhythm changes to same as last verse
|----------------------------------------------------------
|----------------------------------------------------------
|----------------------7--------------------------7--------
|-------7--------------7----------2---------------7--------
|-------7--------------5----------2---------------5--------
|-------5-------------------------0------------------------
I got a hole in my head, the size of lake f*cking Michigan
my pipes lined in lead, got old school reasons to die
all my money's been spent on a face lift via alcohol
|-----------------------------------------------------------------
|-----------------------------------------------------------------
|-----------------------------6-----------------7-----------------
|-7---------------------------6-----------------7-----------------
|-7---------------------------4-----------------5-----------------
|-5---------------------------------------------------------------
  Please take me to Earth and do with them what you would like to
dream I had, drove me mad and just your time, it's just my f*cking life

Break
|-----------------------------------------------------------------
|-----------------------------------------------------------------
|---------7-7-7-7---------7-7-7-7-------------------------7-7-7-7-
|-7-7-7-7-7-7-7-7-2-2-2-2-7-7-7-7-7-7-7-7-2-2-2-2-4-4-4-4-7-7-7-7-
|-7-7-7-7-5-5-5-5-2-2-2-2-5-5-5-5-7-7-7-7-2-2-2-2-4-4-4-4-5-5-5-5-
|-5-5-5-5---------0-0-0-0---------5-5-5-5-0-0-0-0-2-2-2-2---------

Verse
first 2 staffs, 3 strums each chord, then to second rhythm of previous verses
|--------------------------------------------------------------------
|--------------------------------------------------------------------
|----------------------7------------------------------------7--------
|--------7-------------7-----------------2------------------7--------
|--------7-------------5-----------------2------------------5--------
|--------5-------------------------------0---------------------------
 I got a bottle in hand, straight to the ground with all my memories
it's best left unsaid when they've all been left behind
All my money's been spent on a DIY labotomy
This sinner repents to a (?) bathroom mirror

Chorus
|-----------------------------------------------------------------
|-----------------------------------------------------------------
|-----------------------------6-----------------7-----------------
|-7---------------------------6-----------------7-----------------
|-7---------------------------4-----------------5-----------------
|-5---------------------------------------------------------------
  Please take me to Earth and do with them what you would like to
dream I had, drove me mad and just your time, it's just my f*cking life
dream I had, drove me mad and just your time, it's just my f*cking life

---------7-7-7-7---------7-7-7-7-----------
-7-7-7-7-7-7-7-7-2-2-2-2-7-7-7-7-----------
-7-7-7-7-5-5-5-5-2-2-2-2-5-5-5-5-----------
-5-5-5-5---------0-0-0-0-------------------
                        and that's my life
|---------------------------------
|---------------------------------
|-6----------------------------7--
|-6----------------------------7--
|-4----------------------------5--
|---------------------------------
 It might seem meaningless to you

-6-----------------------------7-7-7-7-
-6-----------------------------7-7-7-7-
-4-----------------------------5-5-5-5-

-7--7--7--7\----------------
-7--7--7--7\----------------
-5--5--5--5\----------------

 and I'm fucked without you

Chorus
|-----------------------------------------------------------------
|-----------------------------------------------------------------
|-----------------------------6-----------------7-----------------
|-7---------------------------6-----------------7-----------------
|-7---------------------------4-----------------5-----------------
|-5---------------------------------------------------------------
  Please take me to Earth and do with them what you would like to
dream I had, drove me mad and just your time, it's just my f*cking life