Allister - Matchsticks Text Guitar Tab

Learn the song with the online tablature player
this is a pretty cool song by allister, so i figured it out for your playing pleasure...enjoy!

intro
     x3
e|-----------|----------------|
B|-----------|----------------|
G|-----7--9--|-----7--9--8/9--|
D|--7--7--9--|--7--7--9--8/9--|
A|--7--5--7--|--7--5--7--6/7--|
E|--5--------|--5-------------|

verse
"Well I've been waiting for the right time..."
e|-----------------------|
B|-----------------------|
G|-----7-----9-----7--9--|
D|--7--7--7--9--7--7--9--|
A|--7--5--7--7--7--5--7--| x2
E|--5-----5-----5--------|

pre-chorus
"And I've been staying up all night waiting..."
      x2
e|-----------|--------|
B|-----------|--------|
G|--7--9-----|--7--9--|
D|--7--9--7--|--7--9--|
A|--5--7--7--|--5--7--|
E|--------5--|--------|

chorus
"She's gonna break my heart..."
      x3
e|-----------|-----|
B|-----------|-----|
G|-----9--7--|--9--|
D|--7--9--7--|--9--|
A|--7--7--5--|--7--|
E|--5--------|-----|

bridge
"Well everytime I see her smile..."
      x3
e|--------------|--------|
B|--------------|--------|
G|--6--7-----9--|--7--9--|
D|--6--7--7--9--|--7--9--|
A|--4--5--7--7--|--5--7--|
E|--------5-----|--------|

end on:
e|-----|
B|-----|
G|-----|
D|--7--|
A|--7--|
E|--5--|

there you go, enjoy another perfect tab!