Allman Brothers Band - Stormy Monday Text Guitar Tab

Learn the song with the online tablature player
                             Stormy Monday - The Allman Brothers Band

  1        &        2        &        3        &        4        &

Intro
Turn Around

   Gtr. 1 (Duane Allman)
 G7
e|--------------------------------------------------------------6---------|
B|3------3--------(3)-\-(2)-/-(3)---/-4------4------------------6---------|
G|2------2--------(2)-\-(1)-/-(2)---/-3------3------------------6---------|
D|3------3--------(3)-\-(2)-/-(3)---/-4------4----------------------------|
A|------------------------------------------------------------------------|
E|------------------------------------------------------------------------|
 |                                                                        |
 | Gtr. 2 (Dickey Betts)                                                  |
e|------------------------------------------------------------------------|
B|------------------------------------------------------------------------|
G|------------------------------------------------------------------------|
D|------------------------------------------------------------------------|
A|------------------------------------------------------------------------|
E|------------------------------------------------------------------------|

 G7
e|------------------------------------------------------------------------|
B|3-----------------------------------3------------------------------5-\--|
G|2------------------------------3---(3)----------------------------------|
D|3------------------------4---------(4)---------------------3-/-5-----\--|
A|------------------4h5--------------(5)----------------------------------|
E|------------------------------------------------------------------------|
 |                                                                        |
e|------------------------------------------------------------------------|
B|------------------------------------------------------------------------|
G|------------------------------------------------------------------------|
D|-------------------------4----------------------------------------------|
A|------------------4h5---------------------------------------------------|
E|------------------------------------------------------------------------|

  1        &        2        &        3        &        4        &

1 Intro Verse
 G7
e|-----------------------------------------------------------5h6-5----5-\-|
B|3-----------------------------------------------------------------------|
G|---------------------------------------------------------5-----5----5-\-|
D|3-----------------------------------------------------------------------|
A|------------------------------------------------------------------------|
E|------------------------------------------------------------------------|
 |                                                                        |
e|------------------------------------------------------------------------|
B|------------------3-/-5-------5-\-3-------------------------------------|
G|------------------------------------------------------------------------|
D|------------------3-/-5-------5-\-3-------------------------------------|
A|------------------------------------------------------------------------|
E|------------------------------------------------------------------------|

2
 C9
e|3-----------------------------------------------------------------------|
B|-------------------------------------------------------------------5-\--|
G|3-----------------------------------------------------------------------|
D|-----------------------------------------------------------3-/-5-----\--|
A|------------------------------------------------------------------------|
E|------------------------------------------------------------------------|
 |                                                                        |
e|------------------3-/-5-------5-\-3-------------------------------------|
B|------------------------------------------------------------------------|
G|------------------3-/-5-------5-\-3-------------------------------------|
D|------------------------------------------------------------------------|
A|------------------------------------------------------------------------|
E|------------------------------------------------------------------------|

3
 G7                                   Ab7
e|------------------------------------------------------------------------|
B|3----------------3-----3-----3-----4-----4-----4-----4-----4-----6-\-4-\|
G|------------------------------------------------------------------------|
D|3----------------3-----3-----3-----4-----4-----4-----4-----4-----6-\-4-\|
A|------------------------------------------------------------------------|
E|------------------------------------------------------------------------|
 |                                                                        |
e|------------------------------------------------------------------------|
B|-----------------3-/-5----(5)-\-3---4-------------------------------4---|
G|------------------------------------------------------------------------|
D|-----------------3-/-5----(5)-\-3---4-------------------------------4---|
A|------------------------------------------------------------------------|
E|------------------------------------------------------------------------|

4
 G7
e|------------------------------------------3-----------4----/-6----------|
B|3----------------------3-----4------3-----------------------------------|
G|------------------------------------------3-----------4----/-6----------|
D|3----------------------3-----4------3-----------------------------------|
A|------------------------------------------------------------------------|
E|------------------------------------------------------------------------|
 |                                                                        |
e|------------------------------------------3-----------------------------|
B|3-----------------------------------------------------------------------|
G|------------------------------------------3-----------------------------|
D|3-----------------------------------------------------------------------|
A|------------------------------------------------------------------------|
E|------------------------------------------------------------------------|

5
 C9
e|3-\--------------------------------------------------------------5h6p5--|
B|------------------------------------------------------------------------|
G|3-\----------------------------------------------------------3/5--------|
D|------------------------------------------------------------------------|
A|------------------------------------------------------------------------|
E|------------------------------------------------------------------------|
 |                                                                        |
e|------------------3-/-5-------5-\-3-------------------------------------|
B|------------------------------------------------------------------------|
G|------------------3-/-5-------5-\-3-------------------------------------|
D|------------------------------------------------------------------------|
A|------------------------------------------------------------------------|
E|------------------------------------------------------------------------|

6
 C9
e|------------------------------------------------------------------------|
B|------------------------------------------------------------------------|
G|3-----------------------------------------------------------------------|
D|------------------------------------------------------------------------|
A|------------------------------------------------------------------------|
E|------------------------------------------------------------------------|
 |                                                                        |
e|------------------3-/-5---------5\3-------------------------------------|
B|------------------------------------------------------------------------|
G|------------------3-/-5---------5\3-------------------------------------|
D|------------------------------------------------------------------------|
A|------------------------------------------------------------------------|
E|------------------------------------------------------------------------|

  1        &        2        &        3        &        4        &

7
 G7                                  Am7
e|------------------------------------------------------------------------|
B|3----3----3---3---3---3----3---3----5---5---5---5---5---5---5---5---5---|
G|3h4--3----3---3---3---3----3---3----5---5---5---5---5---5---5---5---5---|
D|3----3----3---3---3---3----3---3----5---5---5---5---5---5---5---5---5---|
A|------------------------------------------------------------------------|
E|------------------------------------------------------------------------|
 |                                                                        |
e|------------------------------------------------------------------------|
B|------------3-----3---------3-------5---------------------5-------------|
G|------------4-----4---------4-------5---------------------5-------------|
D|------------------------------------------------------------------------|
A|------------------------------------------------------------------------|
E|------------------------------------------------------------------------|

8
 Bm7                                 Bbm7
e|------------------------------------------------------------------------|
B|7-7-7--7-7-7--7-7-7--7-7-7--7-7-7---6-6-6--6-6-6--6-6-6--6-6-6--6-6-6---|
G|7-7-7--7-7-7--7-7-7--7-7-7--7-7-7---6-6-6--6-6-6--6-6-6--6-6-6--6-6-6---|
D|7-7-7--7-7-7--7-7-7--7-7-7--7-7-7---6-6-6--6-6-6--6-6-6--6-6-6--6-6-6---|
A|------------------------------------------------------------------------|
E|------------------------------------------------------------------------|
 |                                                                        |
e|-----------5-------5----------------------------------4-----------------|
B|-----------7-------7--------7-------6-----------------6---------6-------|
G|7---------------------------7-------6---------------------------6-------|
D|------------------------------------------------------------------------|
A|------------------------------------------------------------------------|
E|------------------------------------------------------------------------|

9
 Am7
e|------------------------------------------------------------------------|
B|5-5-5--5-5-5--5-5-5--5-5-5--5-5-5---5-5-5--5-5-5--5-5-5----4------5-----|
G|5-5-5--5-5-5--5-5-5--5-5-5--5-5-5---5-5-5--5-5-5--5-5-5----4------5-----|
D|5-5-5--5-5-5--5-5-5--5-5-5--5-5-5---5-5-5--5-5-5--5-5-5----4------5-----|
A|------------------------------------------------------------------------|
E|------------------------------------------------------------------------|
 |                                                                        |
e|3-----------------------------------------------------------------------|
B|5-----------------------------------------------------------------------|
G|5-----------------------------------------------------------------------|
D|------------------------------------------------------------------------|
A|------------------------------------------------------------------------|
E|------------------------------------------------------------------------|

10
 Cm7
e|------------------------------------------------------------------------|
B|8-8-8--8-8-8--8-8-8--8-8-8--8-8-8---8-8-8--8-8-8--8-8-8--8-8-8--8-8-8---|
G|8-8-8--8-8-8--8-8-8--8-8-8--8-8-8---8-8-8--8-8-8--8-8-8--8-8-8--8-8-8---|
D|8-8-8--8-8-8--8-8-8--8-8-8--8-8-8---8-8-8--8-8-8--8-8-8--8-8-8--8-8-8---|
A|------------------------------------------------------------------------|
E|------------------------------------------------------------------------|
 |                                                                        |
e|3-------------------------------------6---------------------------------|
B|4------------------------------------8----------------------------------|
G|3-----------------------------------8-----------------------------------|
D|------------------------------------------------------------------------|
A|------------------------------------------------------------------------|
E|------------------------------------------------------------------------|

11
 G                                    C
e|------------------------------5--\--3-----------------------------------|
B|3------------------------------------------------------------------5--\-|
G|3h4--------------------3-/-5-----\--3-----------------------------------|
D|3-----------------------------------------------------------3-/-5-----\-|
A|------------------------------------------------------------------------|
E|------------------------------------------------------------------------|
 |                                                                        |
e|------------------------------------------------------------------------|
B|-------------3----3-----3-----3------5----------5------5----5-----5-----|
G|-------------4----4-----4-----4------5----------5------5----5-----5-----|
D|-------------5----5-----5-----5------5----------5------5----5-----5-----|
A|-------------5----5-----5-----5------3----------3------3----3-----3-----|
E|------------------------------------------------------------------------|

12
 G7                                   D+
e|------------------------------------------------------------------------|
B|3-----------------------------------3-----------------------------5-----|
G|----------------------------------3-------------------------------------|
D|3-------------------------------4--------------------------3-/-5-----5-\|
A|------------------------------5-----------------------------------------|
E|------------------------------------------------------------------------|
 |                                                                        |
e|------------------------------------------------------------------------|
B|3-----------------------------------------------------------------------|
G|3h4---------------------------------------------------------------------|
D|3-----------------------------------------------------------------------|
A|--------------------3----4----5-----------------------------------------|
E|------------------------------------------------------------------------|

  1        &        2        &        3        &        4        &

  Verse 1

13                          They call it stormy monday
 G7
e|-----------------------------------------------------------------5------|
B|3-----------------------------------------------------------------------|
G|----------------------------------------------------------3-/-5-----5-\-|
D|3-----------------------------------------------------------------------|
A|------------------------------------------------------------------------|
E|------------------------------------------------------------------------|
 |                                                                        |
e|------------------------------------------------------------------------|
B|------------------3-/-5-------5-\-3-------------------------------------|
G|------------------------------------------------------------------------|
D|------------------3-/-5-------5-\-3-------------------------------------|
A|------------------------------------------------------------------------|
E|------------------------------------------------------------------------|

14                                             but
 C9
e|3-----------------------------------------------------------------------|
B|-----------------------------------------------------------------5------|
G|3-----------------------------------------------------------------------|
D|-----------------------------------------------------------3-/-5----5-\-|
A|------------------------------------------------------------------------|
E|------------------------------------------------------------------------|
 |                                                                        |
e|------------------3-/-5-------5-\-3-------------------------------------|
B|------------------------------------------------------------------------|
G|------------------3-/-5-------5-\-3-------------------------------------|
D|------------------------------------------------------------------------|
A|------------------------------------------------------------------------|
E|------------------------------------------------------------------------|

15                                                          Tuesday's
 G7                                   Ab7
e|------------------------------------------------------------------------|
B|3----------------3-----3-----3------4-4-4--4-4-4--4-4-4--4-4-4--4-4-4---|
G|------------------------------------------------------------------------|
D|3----------------3-----3-----3------4-4-4--4-4-4--4-4-4--4-4-4--4-4-4---|
A|------------------------------------------------------------------------|
E|------------------------------------------------------------------------|
 |                                                                        |
e|------------------------------------------------------------------------|
B|-----------------3-/-5----(5)-\-3---4-------------------------------4---|
G|------------------------------------------------------------------------|
D|-----------------3-/-5----(5)-\-3---4-------------------------------4---|
A|------------------------------------------------------------------------|
E|------------------------------------------------------------------------|

16 just as bad
 G7
e|------------------------------------------3-----------10^---------------|
B|3----------------------3-----4------3-----------------11^---------------|
G|------------------------------------------3-----------------------------|
D|3----------------------3-----4------3-----------------------------------|
A|------------------------------------------------------------------------|
E|------------------------------------------------------------------------|
 |                                                                        |
e|------------------------------------------3-----------3-----------------|
B|3-----------------------------------------------------------------------|
G|------------------------------------------3-----------3-----------------|
D|3-----------------------------------------------------------------------|
A|------------------------------------------------------------------------|
E|------------------------------------------------------------------------|

  1        &        2        &        3        &        4        &

17                     They   call   it   stormy    monday
 C9
e|------------------------------------------------------------------------|
B|10-\-8-\----------------------------------------------------------------|
G|-----------------------------------------------------------3-5-5^6`p3---|
D|10-\-8-\----------------------------------------------------------------|
A|------------------------------------------------------------------------|
E|------------------------------------------------------------------------|
 |                                                                        |
e|------------------3-/-5-------5-\-3-------------------------------------|
B|------------------------------------------------------------------------|
G|------------------3-/-5-------5-\-3-------------------------------------|
D|------------------------------------------------------------------------|
A|------------------------------------------------------------------------|
E|------------------------------------------------------------------------|

18
 C9
e|------------------------------------------------------------------------|
B|----------------------6-------------------------------------------------|
G|5^6`--5^6`--5^6`--5^6`--5^6`--^6`^5p3-3h5--------------------3----------|
D|-------------------------------------5------------------------------5---|
A|------------------------------------------------------------------------|
E|------------------------------------------------------------------------|
 |                                                                        |
e|------------------3-/-5---------5\3-------------------------------------|
B|------------------------------------------------------------------------|
G|------------------3-/-5---------5\3-------------------------------------|
D|------------------------------------------------------------------------|
A|------------------------------------------------------------------------|
E|------------------------------------------------------------------------|

19                                            but               Tues -
 G7                                  Am7
e|------------------------------------------------------------------------|
B|3-----------------------------------5-5-5--5-5-5--5-5-5--5-5-5--5-5-5---|
G|3h4---------------------------------5-5-5--5-5-5--5-5-5--5-5-5--5-5-5---|
D|3-----------------------------------5-5-5--5-5-5--5-5-5--5-5-5--5-5-5---|
A|------------------------------------------------------------------------|
E|------------------------------------------------------------------------|
 |                                                                        |
e|------------------------------------------------------------------------|
B|------------3-----3---------3-------5-----------------------------------|
G|------------4-----4---------4-------5-----------------------------------|
D|------------------------------------------------------------------------|
A|------------------------------------------------------------------------|
E|------------------------------------------------------------------------|

20  day's just as bad
 Bm7                                 Bbm7
e|------------------------------------------------------------------------|
B|7-7-7--7-7-7--7-7-7--7-7-7--7-7-7---6-6-6--6-6-6--6-6-6--6-6-6--6-6-6---|
G|7-7-7--7-7-7--7-7-7--7-7-7--7-7-7---6-6-6--6-6-6--6-6-6--6-6-6--6-6-6---|
D|7-7-7--7-7-7--7-7-7--7-7-7--7-7-7---6-6-6--6-6-6--6-6-6--6-6-6--6-6-6---|
A|------------------------------------------------------------------------|
E|------------------------------------------------------------------------|
 |                                                                        |
e|---------------------------------------6------------------------6-------|
B|7--(7)-------7-------7----------------6------------------------6--------|
G|----7--------------------------------6------------------------6---------|
D|------------------------------------------------------------------------|
A|------------------------------------------------------------------------|
E|------------------------------------------------------------------------|

21                                   Lord and Wednesday's worse
 Am7
e|------------------------------------------------------------------------|
B|5-5-5--5-5-5--5-5-5--5-5-5--5-5-5---5-5-5--5-5-5--5-5-5----4------5-----|
G|5-5-5--5-5-5--5-5-5--5-5-5--5-5-5---5-5-5--5-5-5--5-5-5----4------5-----|
D|5-5-5--5-5-5--5-5-5--5-5-5--5-5-5---5-5-5--5-5-5--5-5-5----4------5-----|
A|------------------------------------------------------------------------|
E|------------------------------------------------------------------------|
 |                                                                        |
e|--5---------------------------------------------------------------------|
B|-5----------------------------------------------------------------------|
G|5-----------------------------------------------------------------------|
D|------------------------------------------------------------------------|
A|------------------------------------------------------------------------|
E|------------------------------------------------------------------------|

22                                   Thursday's all so sad
 Cm7
e|------------------------------------------------------------------------|
B|8-8-8--8-8-8--8-8-8--8-8-8--8-8-8---8-8-8--8-8-8--8-8-8--8-8-8--8-8-8---|
G|8-8-8--8-8-8--8-8-8--8-8-8--8-8-8---8-8-8--8-8-8--8-8-8--8-8-8--8-8-8---|
D|8-8-8--8-8-8--8-8-8--8-8-8--8-8-8---8-8-8--8-8-8--8-8-8--8-8-8--8-8-8---|
A|------------------------------------------------------------------------|
E|------------------------------------------------------------------------|
 |                                                                        |
e|--3-----------------------------------6---------------------------------|
B|-4-----------------------------------8----------------------------------|
G|3-----------------------------------8-----------------------------------|
D|------------------------------------------------------------------------|
A|------------------------------------------------------------------------|
E|------------------------------------------------------------------------|

23
 G                                    C
e|------------------------------5--\--3-----------------------------------|
B|3----------------------------------------------------------------5--\---|
G|3h4--------------------3-/-5-----\--3-----------------------------------|
D|3---------------------------------------------------------3-/-5-----5-\-|
A|------------------------------------------------------------------------|
E|------------------------------------------------------------------------|
 |                                                                        |
e|------------------------------------------------------------------------|
B|-------------3----3-----3-----3------5----------5------5----5-----5-----|
G|-------------4----4-----4-----4------5----------5------5----5-----5-----|
D|-------------5----5-----5-----5------5----------5------5----5-----5-----|
A|-------------5----5-----5-----5------3----------3------3----3-----3-----|
E|------------------------------------------------------------------------|

24
 G7                                   D+
e|------------------------------------------------------------------------|
B|3-----------------------------------3-----------------------------------|
G|----------------------------------3-------------------------------------|
D|3-------------------------------4---------------------------------------|
A|------------------------------5-----------------------------------------|
E|------------------------------------------------------------------------|
 |                                                                        |
e|------------------------------------6^----------------------------------|
B|3-----------------------------------6^----------------------------------|
G|3h4---------------------------------------------------------------------|
D|3-----------------------------------------------------------------------|
A|--------------------3----4----5-----------------------------------------|
E|------------------------------------------------------------------------|

  1        &        2        &        3        &        4        &

  Verse 2

25                          The eagle flies on Friday
 G7
e|10^--------------------------------------------------------------5--\---|
B|11^---------------------------------------------------------------------|
G|----------------------------------------------------------3-/-5-----5-\-|
D|------------------------------------------------------------------------|
A|------------------------------------------------------------------------|
E|------------------------------------------------------------------------|
 |                                                                        |
e|------------------------------------------------------------------------|
B|------------------3-/-5-------5-\-3-------------------------------------|
G|------------------------------------------------------------------------|
D|------------------3-/-5-------5-\-3-------------------------------------|
A|------------------------------------------------------------------------|
E|------------------------------------------------------------------------|

26
 C9
e|3-----------------------------------------------------------------------|
B|-------------------------------------------------------------------5-\--|
G|3-----------------------------------------------------------------------|
D|-----------------------------------------------------------3-/-5-----\--|
A|------------------------------------------------------------------------|
E|------------------------------------------------------------------------|
 |                                                                        |
e|------------------3-/-5-------5-\-3-------------------------------------|
B|------------------------------------------------------------------------|
G|------------------3-/-5-------5-\-3-------------------------------------|
D|------------------------------------------------------------------------|
A|------------------------------------------------------------------------|
E|------------------------------------------------------------------------|

27                  Saturday            I  go  out     to   play
 G7                                   Ab7
e|------------------------------------------------------------------------|
B|3----------------3-----3-----3-----4-----4-----4-----4-----4------------|
G|------------------------------------------------------------------------|
D|3----------------3-----3-----3-----4-----4-----4-----4-----4------------|
A|------------------------------------------------------------------------|
E|------------------------------------------------------------------------|
 |                                                                        |
e|------------------------------------------------------------------------|
B|-----------------3-/-5----(5)-\-3---4-------------------------------4---|
G|------------------------------------------------------------------------|
D|-----------------3-/-5----(5)-\-3---4-------------------------------4---|
A|------------------------------------------------------------------------|
E|------------------------------------------------------------------------|

28
 G7
e|10^--------10^----------10^--------10^----------10^----------10^--------|
B|11^--------11^----------11^--------11^----------11^----------11^--------|
G|------------------------------------------------------------------12p10-|
D|------------------------------------------------------------------------|
A|------------------------------------------------------------------------|
E|------------------------------------------------------------------------|
 |                                                                        |
e|------------------------------------------------------------------------|
B|3-----------3------------3---------/6---------6-----------6--------6----|
G|------------------------------------------------------------------------|
D|3-----------3------------3---------/6---------6-----------6--------6----|
A|------------------------------------------------------------------------|
E|------------------------------------------------------------------------|

  1        &        2        &        3        &        4        &

29                          The   eagle   flies   on   Friday
 C9
e|-----------------------------------------------------------8------6-----|
B|-------11---------------------------------------------------------------|
G|10^12----------------------------------------------------8/9------7-----|
D|------------------------------------------------------------------------|
A|------------------------------------------------------------------------|
E|------------------------------------------------------------------------|
 |                                                                        |
e|------------------3-/-5-------5-\-3-------------------------------------|
B|------------------------------------------------------------------------|
G|------------------3-/-5-------5-\-3-------------------------------------|
D|------------------------------------------------------------------------|
A|------------------------------------------------------------------------|
E|------------------------------------------------------------------------|

30                                        and     Saturday        I  go
 C9
e|5-\-3-------------------------------------------------------------------|
B|------------------------------------------------------------------5--\--|
G|5-\-3-------------------------------------------------------------------|
D|-----------------------------------------------------------3-/-5-----\--|
A|------------------------------------------------------------------------|
E|------------------------------------------------------------------------|
 |                                                                        |
e|------------------------------8-----------------------------------------|
B|------------------8-/-10---------------10--\--8-------------------------|
G|------------------------------------------------------------------------|
D|------------------8-/-10---------------10--\--8-------------------------|
A|------------------------------------------------------------------------|
E|------------------------------------------------------------------------|

31 out     to   play
 G7                                  Am7
e|------------------------------------------------------------------------|
B|3----3--------3-------3--------3----5---5---5---5---5---5---5---5---5---|
G|3----3--------3-------3--------3----5---5---5---5---5---5---5---5---5---|
D|3----3--------3-------3--------3----5---5---5---5---5---5---5---5---5---|
A|------------------------------------------------------------------------|
E|------------------------------------------------------------------------|
 |                                                                        |
e|------------------------------------------------------------------------|
B|------------3-----3---------3-------5---------------------5-------------|
G|------------4-----4---------4-------5---------------------5-------------|
D|------------------------------------------------------------------------|
A|------------------------------------------------------------------------|
E|------------------------------------------------------------------------|

32
 Bm7                                 Bbm7
e|------------------------------------------------------------------------|
B|7-7-7--7-7-7--7-7-7--7-7-7--7-7-7---6-6-6--6-6-6--6-6-6--6-6-6--6-6-6---|
G|7-7-7--7-7-7--7-7-7--7-7-7--7-7-7---6-6-6--6-6-6--6-6-6--6-6-6--6-6-6---|
D|7-7-7--7-7-7--7-7-7--7-7-7--7-7-7---6-6-6--6-6-6--6-6-6--6-6-6--6-6-6---|
A|------------------------------------------------------------------------|
E|------------------------------------------------------------------------|
 |                                                                        |
e|------------------------------------------------------4-----------------|
B|-----------7-------7--------7-------6-----------------6---------6-------|
G|7----------7----------------7-------6---------------------------6-------|
D|------------------------------------------------------------------------|
A|------------------------------------------------------------------------|
E|------------------------------------------------------------------------|

33                     Sunday    I  go  to  church,  yea
 Am7
e|------------------------------------------------------------------------|
B|5-5-5--5-5-5--5-5-5--5-5-5--5-5-5---5-5-5--5-5-5--5-5-5----4------5-----|
G|5-5-5--5-5-5--5-5-5--5-5-5--5-5-5---5-5-5--5-5-5--5-5-5----4------5-----|
D|5-5-5--5-5-5--5-5-5--5-5-5--5-5-5---5-5-5--5-5-5--5-5-5----4------5-----|
A|------------------------------------------------------------------------|
E|------------------------------------------------------------------------|
 |                                                                        |
e|3-----------------------------------------------------------------------|
B|5-----------------------------------------------------------------------|
G|5-----------------------------------------------------------------------|
D|------------------------------------------------------------------------|
A|------------------------------------------------------------------------|
E|------------------------------------------------------------------------|

34                          Gonna  lie  me  there            to  pray
 Cm7
e|------------------------------------------------------------------------|
B|8-8-8--8-8-8--8-8-8--8-8-8--8-8-8---8-8-8--8-8-8--8-8-8--8-8-8--8-8-8---|
G|8-8-8--8-8-8--8-8-8--8-8-8--8-8-8---8-8-8--8-8-8--8-8-8--8-8-8--8-8-8---|
D|8-8-8--8-8-8--8-8-8--8-8-8--8-8-8---8-8-8--8-8-8--8-8-8--8-8-8--8-8-8---|
A|------------------------------------------------------------------------|
E|------------------------------------------------------------------------|
 |                                                                        |
e|3-------------------------------------6---------------------------------|
B|4------------------------------------8----------------------------------|
G|3-----------------------------------8-----------------------------------|
D|------------------------------------------------------------------------|
A|------------------------------------------------------------------------|
E|------------------------------------------------------------------------|

35
 G                                    C
e|------------------------------5--\--3-----------------------------------|
B|3------------------------------------------------------------------5--\-|
G|3h4--------------------3-/-5-----\--3-----------------------------------|
D|3-----------------------------------------------------------3-/-5-----\-|
A|------------------------------------------------------------------------|
E|------------------------------------------------------------------------|
 |                                                                        |
e|------------------------------------------------------------------------|
B|-------------3----3-----3-----3------5----------5------5----5-----5-----|
G|-------------4----4-----4-----4------5----------5------5----5-----5-----|
D|-------------5----5-----5-----5------5----------5------5----5-----5-----|
A|-------------5----5-----5-----5------3----------3------3----3-----3-----|
E|------------------------------------------------------------------------|

36
 G7                                   D+
e|------------------------------------------------------------------------|
B|3-----------------------------------3-----------------------------5-----|
G|----------------------------------3-------------------------------------|
D|3-------------------------------4--------------------------3-/-5-----5-\|
A|------------------------------5-----------------------------------------|
E|------------------------------------------------------------------------|
 |                                                                        |
e|------------------------------------------------------------------------|
B|3-----------------------------------------------------------------------|
G|3h4---------------------------------------------------------------------|
D|3-----------------------------------------------------------------------|
A|--------------------3----4----5-----------------------------------------|
E|------------------------------------------------------------------------|

  1        &        2        &        3        &        4        &

  Verse 3

37                          Lord   have   mercy
 G7
e|10^---------------------------------------------------------------------|
B|11^-------------------------------------------------------------------3-|
G|---------------------------------------------------------------3-5^6`---|
D|-------------------------------------------------------------5----------|
A|------------------------------------------------------------------------|
E|------------------------------------------------------------------------|
 |                                                                        |
e|------------------------------------------------------------------------|
B|------------------3-/-5-------5-\-3-------------------------------------|
G|------------------------------------------------------------------------|
D|------------------3-/-5-------5-\-3-------------------------------------|
A|------------------------------------------------------------------------|
E|------------------------------------------------------------------------|

38                                                     Lord      have
 C9
e|3--6^7--3---------------------------------------------------------------|
B|-------------3----------------------------------------------------------|
G|--------------------------------------------------5^6--5--------3h4-----|
D|------------------------------------------------------------------------|
A|------------------------------------------------------------------------|
E|------------------------------------------------------------------------|
 |                                                                        |
e|------------------3-/-5-------5-\-3-------------------------------------|
B|------------------------------------------------------------------------|
G|------------------3-/-5-------5-\-3-------------------------------------|
D|------------------------------------------------------------------------|
A|------------------------------------------------------------------------|
E|------------------------------------------------------------------------|

39  mercy  on  me
 G7                                   Ab7
e|------------------------------------------------------------------------|
B|-----------------3-----3-----3-----4-----4-----4-----4-----4--------6---|
G|------------------------------------------------------------------------|
D|5----------------3-----3-----3-----4-----4-----4-----4-----4--------6---|
A|------------------------------------------------------------------------|
E|------------------------------------------------------------------------|
 |                                                                        |
e|------------------------------------------------------------------------|
B|-----------------3-/-5----(5)-\-3---4-------------------------------6---|
G|------------------------------------------------------------------------|
D|-----------------3-/-5----(5)-\-3---4-------------------------------6---|
A|------------------------------------------------------------------------|
E|------------------------------------------------------------------------|

40
 G7
e|------------------------------------------5^----------------------------|
B|3----------------------2--/-3--/--4-------6^----------------------------|
G|------------------------------------------------------------------------|
D|3----------------------2--/-3--/--4-------------------------------------|
A|------------------------------------------------------------------------|
E|------------------------------------------------------------------------|
 |                                                                        |
e|------------------------------------------3-----------------------------|
B|3-----------------------------------------------------------------------|
G|------------------------------------------3-----------------------------|
D|3-----------------------------------------------------------------------|
A|------------------------------------------------------------------------|
E|------------------------------------------------------------------------|

  1        &        2        &        3        &        4        &

41                     Lord   have   mercy
 C9
e|-----------------------------------------------------------8------6-----|
B|8-\---------------------------------------------------------------------|
G|-----------------------------------------------------------9------7-----|
D|8-\---------------------------------------------------------------------|
A|------------------------------------------------------------------------|
E|------------------------------------------------------------------------|
 |                                                                        |
e|------------------3-/-5-------5-\-3-------------------------------------|
B|------------------------------------------------------------------------|
G|------------------3-/-5-------5-\-3-------------------------------------|
D|------------------------------------------------------------------------|
A|------------------------------------------------------------------------|
E|------------------------------------------------------------------------|

42                                                      Lord      have
 C9
e|5--\--3-------------------------------------------------3--/--5---------|
B|-------------------------------------------------------------------5--\-|
G|5--\--3-------------------------------------------------3--/--5---------|
D|-------------------------------------------------------------------5--\-|
A|------------------------------------------------------------------------|
E|------------------------------------------------------------------------|
 |                                                                        |
e|------------------3-/-5---------5\3-------------------------------------|
B|------------------------------------------------------------------------|
G|------------------3-/-5---------5\3-------------------------------------|
D|------------------------------------------------------------------------|
A|------------------------------------------------------------------------|
E|------------------------------------------------------------------------|

43 mercy  on  me
 G7                                  Am7
e|------------------------------------------------------------------------|
B|3---------3-------3--------3--------5-------5-------5-------5-------5---|
G|------------------------------------------------------------------------|
D|3---------3-------3--------3--------5-------5-------5-------5-------5---|
A|------------------------------------------------------------------------|
E|------------------------------------------------------------------------|
 |                                                                        |
e|------------------------------------------------------------------------|
B|------------3-----3---------3-------5---------------------5-------------|
G|------------4-----4---------4-------5---------------------5-------------|
D|------------------------------------------------------------------------|
A|------------------------------------------------------------------------|
E|------------------------------------------------------------------------|

44
 Bm7                                 Bbm7
e|------------------------------------------------------------------------|
B|7-7-7--7-7-7--7-7-7--7-7-7--7-7-7---6-6-6--6-6-6--6-6-6--6-6-6--6-6-6---|
G|7-7-7--7-7-7--7-7-7--7-7-7--7-7-7---6-6-6--6-6-6--6-6-6--6-6-6--6-6-6---|
D|7-7-7--7-7-7--7-7-7--7-7-7--7-7-7---6-6-6--6-6-6--6-6-6--6-6-6--6-6-6---|
A|------------------------------------------------------------------------|
E|------------------------------------------------------------------------|
 |                                                                        |
e|--------------------------------------6-------------------------6-------|
B|7----------7-------7--------7--------6--------------------------6-------|
G|7----------7-------7--------7-------6---------------------------6-------|
D|------------------------------------------------------------------------|
A|------------------------------------------------------------------------|
E|------------------------------------------------------------------------|

45         though   I'm   tryin'      trying    to    find    my   baby
 Am7
e|------------------------------------------------------------------------|
B|5-5-5--5-5-5--5-5-5--5-5-5--5-5-5---5-5-5--5-5-5--5-5-5----4------5-----|
G|5-5-5--5-5-5--5-5-5--5-5-5--5-5-5---5-5-5--5-5-5--5-5-5----4------5-----|
D|5-5-5--5-5-5--5-5-5--5-5-5--5-5-5---5-5-5--5-5-5--5-5-5----4------5-----|
A|------------------------------------------------------------------------|
E|------------------------------------------------------------------------|
 |                                                                        |
e|5-----------------------------------------------------------------------|
B|5-----------------------------------------------------------------------|
G|5-----------------------------------------------------------------------|
D|------------------------------------------------------------------------|
A|------------------------------------------------------------------------|
E|------------------------------------------------------------------------|

46                                won't  somebody  please  send  her  home
 Cm7
e|------------------------------------------------------------------------|
B|8-8-8--8-8-8--8-8-8--8-8-8--8-8-8---8-8-8--8-8-8--8-8-8--8-8-8--8-8-8---|
G|8-8-8--8-8-8--8-8-8--8-8-8--8-8-8---8-8-8--8-8-8--8-8-8--8-8-8--8-8-8---|
D|8-8-8--8-8-8--8-8-8--8-8-8--8-8-8---8-8-8--8-8-8--8-8-8--8-8-8--8-8-8---|
A|------------------------------------------------------------------------|
E|------------------------------------------------------------------------|
 |                                                                        |
e|--------3-------------------------------------------------------6----------|
B|-----4----------------------------------------------------------8----------|
G|--3------------------------------------------------------------------------|
D|---------------------------------------------------------------------------|
A|---------------------------------------------------------------------------|
E|---------------------------------------------------------------------------|

47
 G                                    C
e|------------------------------5--\--3-----------------------------------|
B|3------------------------------------------------------------------5--\-|
G|3h4--------------------3-/-5-----\--3-----------------------------------|
D|3-----------------------------------------------------------3-/-5-----\-|
A|------------------------------------------------------------------------|
E|------------------------------------------------------------------------|
 |                                                                        |
e|------------------------------------------------------------------------|
B|-------------3----3-----3-----3------5----------5------5----5-----5-----|
G|-------------4----4-----4-----4------5----------5------5----5-----5-----|
D|-------------5----5-----5-----5------5----------5------5----5-----5-----|
A|-------------5----5-----5-----5------3----------3------3----3-----3-----|
E|------------------------------------------------------------------------|

48                                                          Oh  Lord! (no)
 G7                                   D+
e|------------------------------------------------------------------------|
B|3-----------------------------------3-----------------------------------|
G|----------------------------------3-------------------------------------|
D|3-------------------------------4---------------------------------------|
A|------------------------------5-----------------------------------------|
E|------------------------------------------------------------------------|
 |                                                                        |
e|------------------------------------------------------------------------|
B|3-----------------------------------------------------------------------|
G|3h4---------------------------------------------------------------------|
D|3-----------------------------------------------------------------------|
A|--------------------3----4----5-----------------------------------------|
E|------------------------------------------------------------------------|

  1        &        2        &        3        &        4        &

1st Gtr solo
Duane Allman)

49
 G7
e|-----------------------------------------------------------------10`12--|
B|10--^--^--^-11--^--^--12-------------------------------------8----------|
G|------------------------------------------------------------x-----------|
D|-----------------------------------------------------------x------------|
A|------------------------------------------------------------------------|
E|------------------------------------------------------------------------|
 |                                                                        |
e|------------------------------------------------------------------------|
B|------------------3-/-5-------5-\-3-------------------------------------|
G|------------------------------------------------------------------------|
D|------------------3-/-5-------5-\-3-------------------------------------|
A|------------------------------------------------------------------------|
E|------------------------------------------------------------------------|

50
 C9
e|10----------------------------------------------------------------------|
B|--10`12--8~~----------------8-8--8h10-------------------------8~---8~---|
G|--------------------------9---------------------------------------------|
D|------------------------------------------------------------------------|
A|------------------------------------------------------------------------|
E|------------------------------------------------------------------------|
 |                                                                        |
e|------------------3-/-5-------5-\-3-------------------------------------|
B|------------------------------------------------------------------------|
G|------------------3-/-5-------5-\-3-------------------------------------|
D|------------------------------------------------------------------------|
A|------------------------------------------------------------------------|
E|------------------------------------------------------------------------|

51
 G7                                   Ab7
e|------------------------------------------------------------------------|
B|10^12-10^12~-----------------8~-8~--11`13--10^12--------------8~---8~---|
G|------------------------------------------------------------------------|
D|------------------------------------------------------------------------|
A|------------------------------------------------------------------------|
E|------------------------------------------------------------------------|
 |                                                                        |
e|------------------------------------------------------------------------|
B|-----------------3-/-5----(5)-\-3---4-------------------------------4---|
G|------------------------------------------------------------------------|
D|-----------------3-/-5----(5)-\-3---4-------------------------------4---|
A|------------------------------------------------------------------------|
E|------------------------------------------------------------------------|

52
 G7
e|10^12-10~~~----------10`12-10-------------------------------------------|
B|-----------------------------------10`12^10r-8~~--------------11--------|
G|-------------------------------------------------------------------10---|
D|------------------------------------------------------------------------|
A|------------------------------------------------------------------------|
E|------------------------------------------------------------------------|
 |                                                                        |
e|------------------------------------------3-----------------------------|
B|3-----------------------------------------------------------------------|
G|------------------------------------------3-----------------------------|
D|3-----------------------------------------------------------------------|
A|------------------------------------------------------------------------|
E|------------------------------------------------------------------------|

53
 C9
e|------------------------------------------------------------------------|
B|8~\-----------------------6^7h8~--^11--------------------------11-------|
G|-------------------------------------------------------------------10---|
D|------------------------------------------------------------------------|
A|------------------------------------------------------------------------|
E|------------------------------------------------------------------------|
 |                                                                        |
e|------------------3-/-5-------5-\-3-------------------5-----------------|
B|------------------------------------------------------------------------|
G|------------------3-/-5-------5-\-3-------------------5-----------------|
D|------------------------------------------------------------------------|
A|------------------------------------------------------------------------|
E|------------------------------------------------------------------------|

54
 C9
e|------------------------------------------------------------------------|
B|8~\6----------------------6^7h8~^11-------------------------------------|
G|-------------------------------------------------------------^7^5r3-----|
D|---------------------------------------------------------------------5--|
A|------------------------------------------------------------------------|
E|------------------------------------------------------------------------|
 |                                                                        |
e|------------------3-/-5-------5-\-3-------------------5-----------------|
B|------------------------------------------------------------------------|
G|------------------3-/-5-------5-\-3-------------------5-----------------|
D|------------------------------------------------------------------------|
A|------------------------------------------------------------------------|
E|------------------------------------------------------------------------|

  1        &        2        &        3        &        4        &

55
 G7                                  Am7
e|------------------------------------------------------------------------|
B|-----------------------------------------3------------------------------|
G|3h4~----------------------------3h4-5---------3h4-------------------12--|
D|---------------------------5--------------------------5~-------/14------|
A|------------------------------------------------------------------------|
E|------------------------------------------------------------------------|
 |                                                                        |
e|------------------------------------------------------------------------|
B|3---------3-------3--------3--------5-------5-------5-------5-------5---|
G|------------------------------------------------------------------------|
D|3---------3-------3--------3--------5-------5-------5-------5-------5---|
A|------------------------------------------------------------------------|
E|------------------------------------------------------------------------|

56
 Bm7                                 Bbm7
e|------------------------------------------------------------------------|
B|------------------------------15`17--15---------------------------------|
G|14`17----14^16----14----12---------------14^16---12\---------------12---|
D|--------------------------------------------------------------/14-------|
A|------------------------------------------------------------------------|
E|------------------------------------------------------------------------|
 |                                                                        |
e|------------------------------------------------------------------------|
B|7---------7-------7--------7--------6-------6-------6-------6-------6---|
G|------------------------------------------------------------------------|
D|7---------7-------7--------7--------6-------6-------6-------6-------6---|
A|------------------------------------------------------------------------|
E|------------------------------------------------------------------------|

57
 Am7
e|------------------------------------------------------------------------|
B|------------------------------------------------------------------------|
G|14^15--^--^--^---14----14^17-14^16^14--12~-14^15------------------------|
D|------------------------------------------------------------------------|
A|------------------------------------------------------------------------|
E|------------------------------------------------------------------------|
 |                                                                        |
e|------------------------------------------------------------------------|
B|5--------------------------5--------5--------------------------5--------|
G|------------------------------------------------------------------------|
D|5--------------------------5--------5--------------------------5--------|
A|------------------------------------------------------------------------|
E|------------------------------------------------------------------------|

58
 Cm7
e|------------------------------------------------------6^------x---------|
B|11^13~~--^11~-----------8~--8~-----6^----------------------------x------|
G|-----------------------------------------7\5--3^--------------------5---|
D|------------------------------------------------------------------------|
A|------------------------------------------------------------------------|
E|------------------------------------------------------------------------|
 |                                                                        |
e|------------------------------------------------------------------------|
B|8--------------------------8--------8--------------------------8--------|
G|------------------------------------------------------------------------|
D|8--------------------------8--------8--------------------------8--------|
A|------------------------------------------------------------------------|
E|------------------------------------------------------------------------|

59
 G7                                   C9
e|6^---3/-----------15--18--18`20`18--15~--~---15~---~--15-----15---------|
B|------------------------------------------------------18^20--18^20^18\--|
G|------------------------------------------------------------------------|
D|------------------------------------------------------------------------|
A|------------------------------------------------------------------------|
E|------------------------------------------------------------------------|
 |                                                                        |
e|------------------------------------------------------------------------|
B|3--------------------------3--------8--------------------------8--------|
G|------------------------------------------------------------------------|
D|3--------------------------3--------8--------------------------8--------|
A|------------------------------------------------------------------------|
E|------------------------------------------------------------------------|

60
 G7                                   D+
e|------------------------------------------------------------------------|
B|------------------------------------------------------------------------|
G|-------12--14----^14--12~--12~------------------------------12---12~----|
D|12/14------------------------------12~--\-------------/14---------------|
A|------------------------------------------------------------------------|
E|------------------------------------------------------------------------|
 |                                                                        |
e|------------------------------------------------------------------------|
B|3--------------------------3--------5--------------------------5--------|
G|4--------------------------4--------5--------------------------5--------|
D|------------------------------------------------------------------------|
A|------------------------------------------------------------------------|
E|------------------------------------------------------------------------|

  1        &        2        &        3        &        4        &

61
 G7
e|------------------------------------------------------------------------|
B|15`18---12---15~---------15^17------15----15^18----15^17------15--------|
G|------------------------------------------------------------------------|
D|------------------------------------------------------------------------|
A|------------------------------------------------------------------------|
E|------------------------------------------------------------------------|
 |                                                                        |
e|------------------------------------------------------------------------|
B|3--------------------------3--------3-----------------------------------|
G|4--------------------------4--------3-----------------------------------|
D|------------------------------------4-----------------------------------|
A|------------------------------------------------------------------------|
E|------------------------------------------------------------------------|

62
 C9
e|------------------------------------------------------------------------|
B|------------------------------------------------------------------------|
G|14-^15`14-12~--~--\----------12--15----------------------12-14- --12----|
D|----------------------/14-----------14~--~--~---~\---/14-------14----14-|
A|------------------------------------------------------------------------|
E|------------------------------------------------------------------------|
 |                                                                        |
e|------------------------------------------------------------------------|
B|-------------3----3-------------5---3-----------------3-----------------|
G|-------------3h4--3h4-----------5---3h4---------------3h4---------------|
D|------------------------------------------------------------------------|
A|------------------------------------------------------------------------|
E|------------------------------------------------------------------------|

63
 G7                                   Ab7
e|------------------------------------------------------------------------|
B|15`18--12-15~--------15^17---------15~-----15^17---17^18------15^17-----|
G|------------------------------------------------------------------------|
D|------------------------------------------------------------------------|
A|------------------------------------------------------------------------|
E|------------------------------------------------------------------------|
 |                                                                        |
e|------------------------------------------------------------------------|
B|-------------8----8------------10---8-----------------8-----------------|
G|-------------8h9--8h9----------10---8h9---------------8h9---------------|
D|------------------------------------------------------------------------|
A|------------------------------------------------------------------------|
E|------------------------------------------------------------------------|

64
 G7
e|------------------------------------------------------------------------|
B|17^18----15^17---17^18----15^17-----15~------17^20----17----------------|
G|---------------------------------------------------------------14-------|
D|------------------------------------------------------------------------|
A|------------------------------------------------------------------------|
E|------------------------------------------------------------------------|
 |                                                                        |
e|------------------------------------------------------------------------|
B|-------------3----3-------------5---3-----------------3-----------------|
G|-------------3h4--3h4-----------5---3h4---------------3h4---------------|
D|------------------------------------------------------------------------|
A|------------------------------------------------------------------------|
E|------------------------------------------------------------------------|

65
 C9
e|------------------------------------------------------------------------|
B|------------------------------------------------------------------------|
G|^16^14---12-------------12-----14---14^16----------------------12-------|
D|-----------------/14-----------------------10~--~-\----/14--------------|
A|------------------------------------------------------------------------|
E|------------------------------------------------------------------------|
 |                                                                        |
e|------------------------------------------------------------------------|
B|-------------3----3-------------5---3-----------------3-----------------|
G|-------------3h4--3h4-----------5---3h4---------------3h4---------------|
D|------------------------------------------------------------------------|
A|------------------------------------------------------------------------|
E|------------------------------------------------------------------------|

66
 C9
e|------------------------------------------------------------------------|
B|--------------------------------15---------------------------15---------|
G|^16^14---p 12-----12-----14^17-(17)-14^16--12~---12~--14^16-(16)-16^14--|
D|------------------------------------------------------------------------|
A|------------------------------------------------------------------------|
E|------------------------------------------------------------------------|
 |                                                                        |
e|------------------------------------------------------------------------|
B|-------------8----8------------10---8-----------------8-----------------|
G|-------------8h9--8h9----------10---8h9---------------8h9---------------|
D|------------------------------------------------------------------------|
A|------------------------------------------------------------------------|
E|------------------------------------------------------------------------|

  1        &        2        &        3        &        4        &

67
 G7                                  Am7
e|------------------------------------------------------------------------|
B|------------------------------------------------------------------------|
G|14^16~------16~------^16^14----12---14^17------------------^17^14---12--|
D|------------------------------------------------------------------------|
A|------------------------------------------------------------------------|
E|------------------------------------------------------------------------|
 |                                                                        |
e|------------------------------------------------------------------------|
B|3---------3-------3--------3--------5-------5-------5-------5-------5---|
G|------------------------------------------------------------------------|
D|3---------3-------3--------3--------5-------5-------5-------5-------5---|
A|------------------------------------------------------------------------|
E|------------------------------------------------------------------------|

68
 Bm7                                 Bbm7
e|------------------------------------------------------------------------|
B|13-^--^--^--^--15-------------------------------------------------------|
G|----------------------14^17^14--12--12~-------------(12)\----------12---|
D|------------------------------------------------------------/14---------|
A|------------------------------------------------------------------------|
E|------------------------------------------------------------------------|
 |                                                                        |
e|------------------------------------------------------------------------|
B|7---------7-------7--------7--------6-------6-------6-------6-------6---|
G|------------------------------------------------------------------------|
D|7---------7-------7--------7--------6-------6-------6-------6-------6---|
A|------------------------------------------------------------------------|
E|------------------------------------------------------------------------|

69
 Am7
e|------------------------------------------------------------------------|
B|------------------------------------------------------------------------|
G|14`16`14-----^16^15-----^16^14----^16^14---------14^16-------^16^14-----|
D|------------------------------------------------------------------------|
A|------------------------------------------------------------------------|
E|------------------------------------------------------------------------|
 |                                                                        |
e|------------------------------------------------------------------------|
B|5--------------------------5--------5--------------------------5--------|
G|------------------------------------------------------------------------|
D|5--------------------------5--------5--------------------------5--------|
A|------------------------------------------------------------------------|
E|------------------------------------------------------------------------|

70
 Cm7
e|------------------------------------------------------------------------|
B|------------------------------------------------------------------------|
G|14^16-------^15^14-------12---------^10-------^10-----------------------|
D|----------------------------------------------------------10------8-----|
A|------------------------------------------------------------------------|
E|------------------------------------------------------------------------|
 |                                                                        |
e|------------------------------------------------------------------------|
B|8--------------------------8--------8--------------------------8--------|
G|------------------------------------------------------------------------|
D|8--------------------------8--------8--------------------------8--------|
A|------------------------------------------------------------------------|
E|------------------------------------------------------------------------|

71
 G                                    C
e|---------------------15---18-15-15--------------------17p15----15-------|
B|8~---------------/15----15----------18^20~----20^18-15------15----18^21-|
G|------------------------------------------------------------------------|
D|------------------------------------------------------------------------|
A|------------------------------------------------------------------------|
E|------------------------------------------------------------------------|
 |                                                                        |
e|------------------------------------------------------------------------|
B|-------------3----3-----3-----3------5----------5------5----5-----5-----|
G|-------------4----4-----4-----4------5----------5------5----5-----5-----|
D|-------------5----5-----5-----5------5----------5------5----5-----5-----|
A|-------------5----5-----5-----5------3----------3------3----3-----3-----|
E|------------------------------------------------------------------------|

72
 G7                                   D+
e|------------------------------------------------------------------------|
B|18^21--18^20--15--15---18^20--18^20-15~----------15~--15h18-------------|
G|------------------------------------------------------------------------|
D|------------------------------------------------------------------------|
A|------------------------------------------------------------------------|
E|------------------------------------------------------------------------|
 |                                                                        |
e|------------------------------------------------------------------------|
B|3---------------------------------------3-------------------------------|
G|3h4-----------------------------------3---------------------------------|
D|3-----------------------------------4-----------------------------------|
A|--------------------3----4----5-----------------------------------------|
E|------------------------------------------------------------------------|

  1        &        2        &        3        &        4        &

Hammond Solo
Greg Allman)

  Gtrs 1 & 2 play variation of this together

73
 G7
e|------------------------------------------------------------------------|
B|3---------3--3----3--3-----------------------3-------3-3-----3-----3-3--|
G|2---------2--2----2--2-----------------------2-------2-2-----2-----2-2--|
D|3---------3--3----3--3-----------------------3-------3-3-----3-----3-3--|
A|2--------------------------------------------2--------------------------|
E|------------------------------------------------------------------------|

74
 C9
e|------------------------------------------------------------------------|
B|3---------3--3----2--3-----3--3----3--3------3-------3-3-----3-----3-3--|
G|3---------3--3----2--3-----3--3----3--3------3-------3-3-----3-----3-3--|
D|2---------2--2----1--2-----2--2----2--2------2-------2-2-----2-----2-2--|
A|3-----------------------------------------------------------------------|
E|------------------------------------------------------------------------|

75
 G7                                   Ab7
e|------------------------------------------------------------------------|
B|3---------3--3----3--3-----3--3------4-------4-------4-4-----4-----4-4--|
G|2---------2--2----2--2-----2--2------3-------3-------3-3-----3-----3-3--|
D|3---------3--3----3--3-----3--3------4-------4-------4-4-----4-----4-4--|
A|2------------------------------------3-------3--------------------------|
E|------------------------------------------------------------------------|

76
 G7
e|------------------------------------------------------------------------|
B|3---------3--3----3--3-----3--3------3--\--2--/-3--3--\--2-----3----3---|
G|2---------2--2----2--2-----2--2------2--\--1--/-2--2--\--1-----2----2---|
D|3---------3--3----3--3-----3--3------3--\--2--/-3--3--\--2-----3----3---|
A|2------------------------------------2--\--1--/-2--2--\--1-----2----2---|
E|------------------------------------------------------------------------|

77
 C9
e|------------------------------------------------------------------------|
B|3---------3--3----2--3-----3--3----3--3------3-------3-3-----3-----3-3--|
G|3---------3--3----2--3-----3--3----3--3------3-------3-3-----3-----3-3--|
D|2---------2--2----1--2-----2--2----2--2------2-------2-2-----2-----2-2--|
A|3-----------------------------------------------------------------------|
E|------------------------------------------------------------------------|

78
 C9
e|------------------------------------------------------------------------|
B|3---------3--3----3--3-----3--3----3--3------3-------3-3-----3-----3-3--|
G|3---------3--3----3--3-----3--3----3--3------3-------3-3-----3-----3-3--|
D|2---------2--2----2--2-----2--2----2--2------2-------2-2-----2-----2-2--|
A|3-----------------------------------------------------------------------|
E|------------------------------------------------------------------------|

  1        &        2        &        3        &        4        &

79
 G7                                  Am7
e|------------------------------------------------------------------------|
B|8-------8---8-------8------8--------10------10--10------10-----10-------|
G|------------------------------------------------------------------------|
D|9-------9---9-------9------9--------10------10--10------10-----10-------|
A|------------------------------------------------------------------------|
E|------------------------------------------------------------------------|

80
 Bm7                                 Bbm7
e|------------------------------------------------------------------------|
B|12------12--12------12-----12-------11------11--11------11-----11-------|
G|------------------------------------------------------------------------|
D|12------12--12------12-----12-------11------11--11------11-----11-------|
A|------------------------------------------------------------------------|
E|------------------------------------------------------------------------|

81
 Am7
e|------------------------------------------------------------------------|
B|10------10--10------10-----10-------10------10--10------10-----10-------|
G|9-------9---9-------9------9--------9-------9---9-------9------9--------|
D|10------10--10------10-----10-------10------10--10------10-----10-------|
A|------------------------------------------------------------------------|
E|------------------------------------------------------------------------|

82
 Cm7
e|--------------------------------------------------------8------8--------|
B|8-------8---8-------8------8--------11------11--11------8------8--------|
G|8-------8---8-------8------8--------8-------8---8-------8------8--------|
D|8-------8---8-------8------8--------8-------8---8-----------------------|
A|------------------------------------------------------------------------|
E|------------------------------------------------------------------------|

83
   Gtr 1
 G7                                   C9
e|------------------------------5--\--3-----------------------------------|
B|3------------------------------------------------------------------5--\-|
G|3h4--------------------3-/-5-----\--3-----------------------------------|
D|3-----------------------------------------------------------3-/-5-----\-|
A|------------------------------------------------------------------------|
E|------------------------------------------------------------------------|
 |                                                                        |
 | Gtr 2                                                                  |
e|------------------------------------------------------------------------|
B|-------------3----3-----3-----3------5----------5------5----5-----5-----|
G|-------------4----4-----4-----4------5----------5------5----5-----5-----|
D|-------------5----5-----5-----5------5----------5------5----5-----5-----|
A|-------------5----5-----5-----5------3----------3------3----3-----3-----|
E|------------------------------------------------------------------------|

84
 G7                                   D+
e|------------------------------------------------------------------------|
B|3-----------------------------------3---------------------------5---4---|
G|----------------------------------3-----------------------------5---4---|
D|3-------------------------------4-------------------------------5---4---|
A|------------------------------5-----------------------------------------|
E|------------------------------------------------------------------------|
 |                                                                        |
e|------------------------------------------------------------------------|
B|3-----------------------------------------------------------------------|
G|3h4---------------------------------------------------------------------|
D|3-----------------------------------------------------------------------|
A|--------------------3----4----5-----------------------------------------|
E|------------------------------------------------------------------------|

  1        &        2        &        3        &        4        &

2nd Gtr Solo
Dickey Betts)

85
 G7
e|------------------------------------------------------------------------|
B|3\----------------------------------3-----------------------------------|
G|3\----------------------------------3-----------------------------------|
D|3\----------------------------------3-----------------------------------|
A|------------------------------------------------------------------------|
E|------------------------------------------------------------------------|
 |                                                                        |
e|------------------------------------------------------------------------|
B|------------------------------------------------------------------------|
G|------------------------------------3h4--3h4----------------------------|
D|-----------------------------------------------5---3--------------------|
A|------------------------------------------------------------------------|
E|------------------------------------------------------------------------|

86
 C9
e|------------------------------------------------------------------------|
B|8--------------8---8----------------8------------8---8------------------|
G|9--------------9---9---------9------9------------9---9------------------|
D|8--------------8---8-----8----------8------------8---9------------------|
A|------------------------------------------------------------------------|
E|------------------------------------------------------------------------|
 |                                                                        |
e|------------------------------------------------------------------------|
B|------------------------------------------------------------------------|
G|---------------------------------------3h4--3h4-------------------------|
D|-------------------------------------------------5--3-------------------|
A|-------------------------------------------------------5--3-------------|
E|--------------------------------------------------------------6----3----|

87
 G7                                   Ab7
e|------------------------------------------------------------------------|
B|3------------3----------3------3----4-----------4---------4-------4-----|
G|4------------4----------4------4----5-----------5---------5-------5-----|
D|3------------3----------3------3----4-----------4---------4-------4-----|
A|------------------------------------------------------------------------|
E|------------------------------------------------------------------------|
 |                                                                        |
e|------------------------------------------------------------------------|
B|--------------------------------------------------------------------8---|
G|------------------------------------------------------------------------|
D|----------------------------------------------------------------/9------|
A|------------------------------------------------------------------------|
E|(3)---------------------------------------------------------------------|

88
 G7
e|------------------------------------------------------------------------|
B|3----------------------3------------10------------------------------8---|
G|4----------------------4------------10------------------------------8---|
D|3----------------------3------------10------------------------------8---|
A|------------------------------------------------------------------------|
E|------------------------------------------------------------------------|
 |                                                                        |
e|------------------------------------------------------------------------|
B|------------------------------------------------------------------------|
G|--9-^--10----(10)~~-----------------------------------------------------|
D|------------------------------------------------------------------------|
A|------------------------------------------------------------------------|
E|------------------------------------------------------------------------|

89
 C9
e|------------------------------------------------------------------------|
B|8-----------8----8-------------8----8------------8----10------10--------|
G|8h9---------9----9-------------9----9------------9----10------10--------|
D|8-----------8----8-------------8----8------------8----10--8-/-10--------|
A|------------------------------------------------------------------------|
E|------------------------------------------------------------------------|
 |                                                                        |
e|------------------------------------------------------------------------|
B|---------------------------8~-------8h10--------------------------------|
G|------------------------------------------------------------------------|
D|------------------------------------------------------------------------|
A|------------------------------------------------------------------------|
E|------------------------------------------------------------------------|

90
 C9
e|------------------------------------------------------------------------|
B|8-----------8----8-------------8----8------------8-------8-------8------|
G|8h9---------9----9-------------9----9------------9-------9-------9------|
D|8-----------8----8-------------8----8------------8-------8-------8------|
A|------------------------------------------------------------------------|
E|------------------------------------------------------------------------|
 |                                                                        |
e|------------------------------------------------------------------------|
B|-------------8----8----------------8h10--------------------------8------|
G|----------------------------------------------------------8h9-----------|
D|----------------------------------------------10------------------------|
A|------------------------------------------------------------------------|
E|------------------------------------------------------------------------|

  1        &        2        &        3        &        4        &

91
 G7                                  Am7
e|------------------------------------------------------------------------|
B|3---------3-------3--------3--------5-------5-------5-------5-------5---|
G|4---------4-------4--------4--------5-------5-------5-------5-------5---|
D|3---------3-------3--------3--------5-------5-------5-------5-------5---|
A|------------------------------------------------------------------------|
E|------------------------------------------------------------------------|
 |                                                                        |
e|------------------------------------------------------------------------|
B|------------------------------------------------------------------------|
G|7----7------7-----7-----------------------------------------------------|
D|------------------------------------------------------------------------|
A|------------------------------------------------------------------------|
E|------------------------------------------------------------------------|

92
 Bm7                                 Bbm7
e|------------------------------------------------------------------------|
B|7---------7-------7--------7--------6-------6-------6-------6-------6---|
G|7---------7-------7--------7--------6-------6-------6-------6-------6---|
D|7---------7-------7--------7--------6-------6-------6-------6-------6---|
A|------------------------------------------------------------------------|
E|------------------------------------------------------------------------|
 |                                                                        |
e|6h7------8--------8^9------10-----6h7--------------6h7----8----6h7------|
B|----------------------------------------8~---------------------------8--|
G|------------------------------------------------------------------------|
D|------------------------------------------------------------------------|
A|------------------------------------------------------------------------|
E|------------------------------------------------------------------------|

93
 Am7
e|------------------------------------------------------------------------|
B|5----5----5-------5----5----5--------5------5------5------5------5----5-|
G|5----5----5-------5----5----5--------5------5------5------5------5----5-|
D|5----5----5-------5----5----5--------5------5------5------5------5----5-|
A|------------------------------------------------------------------------|
E|------------------------------------------------------------------------|
 |                                                                        |
e|------------------------------------------------------------------------|
B|-----6--^--^--^--7------------------------------------------------------|
G|7-----------------------------------7---6---5---------------------------|
D|------------------------------------------------------------------------|
A|------------------------------------------------------------------------|
E|------------------------------------------------------------------------|

94
 Cm7
e|------------------------------------------------------------------------|
B|8---------8-------8--------8--------8-------8-------8-------8-------8---|
G|8---------8-------8--------8--------8-------8-------8-------8-------8---|
D|8---------8-------8--------8--------8-------8-------8-------8-------8---|
A|------------------------------------------------------------------------|
E|------------------------------------------------------------------------|
 |                                                                        |
e|------------------------------------------------------------------------|
B|------------------------------------------------------------------------|
G|--------------------^7~--^--~--^--~--7--~--^--~--^--~--6-----5----3h4---|
D|------------------------------------------------------------------------|
A|------------------------------------------------------------------------|
E|------------------------------------------------------------------------|

95
 G7                                   C9
e|------------------------------------------------------------------------|
B|3---------3-------3--------3--------8-------8-------8-------8-------8---|
G|4---------4-------4--------4--------9-------9-------9-------9-------9---|
D|3---------3-------3--------3--------8-------8-------8-------8-------8---|
A|------------------------------------------------------------------------|
E|------------------------------------------------------------------------|
 |                                                                        |
e|3~-------------------------3--------------------------------------------|
B|------------------6-----------------5-----------------4-----------------|
G|------------------------------------------------------------------------|
D|------------------------------------------------------------------------|
A|------------------------------------------------------------------------|
E|------------------------------------------------------------------------|

96
 G7                                   D+
e|------------------------------------------------------------------------|
B|3-----------3---------3-----------------3---------3---------------------|
G|3h4---------4---------4-------------3--------3-----------------3--------|
D|3-----------3---------3-----------------4---------4---------------------|
A|------------------------------------5--------5-----------------5--------|
E|------------------------------------------------------------------------|
 |                                                                        |
e|------------------------------------------------------------------------|
B|3------3------------------3----------------------------------6------6---|
G|------------------3h4---------3h4---------------------------------------|
D|------------------------------------------------------------------------|
A|------------------------------------5-----------------------------------|
E|------------------------------------------------------------------------|

  1        &        2        &        3        &        4        &

97
 G7
e|------------------------------------------------------------------------|
B|3-----------3-----3----------5------6----------5------3-----------------|
G|3h4---------4-----4-----------------------------------3h4---------------|
D|3-----------3-----3----------5------7----------5------3-----------------|
A|------------------------------------------------------------------------|
E|------------------------------------------------------------------------|
 |                                                                        |
e|8^10--------------8^10--------------6-------------------------------6---|
B|-----------------------------------------8-------------------8----------|
G|------------------------------------------------------------------------|
D|------------------------------------------------------------------------|
A|------------------------------------------------------------------------|
E|------------------------------------------------------------------------|

98
 C9
e|------------------------------------------------------------------------|
B|------------8-----8----------10-----11---------10-----8-----------------|
G|------------8h9---9-----------------------------------8h9---------------|
D|------------8-----8----------10-----12---------10-----8-----------------|
A|------------------------------------------------------------------------|
E|------------------------------------------------------------------------|
 |                                                                        |
e|8^10------8^10----8^10^8----6------8^10~~~~~~~~~~~~~~~--------------6---|
B|-------------------------------------------------------------8----------|
G|------------------------------------------------------------------------|
D|------------------------------------------------------------------------|
A|------------------------------------------------------------------------|
E|------------------------------------------------------------------------|

99
 G7                                   Ab7
e|------------------------------------------------------------------------|
B|------------3-----3----------5------6----------5------3-----------------|
G|------------4-----4-----------------------------------3h4---------------|
D|------------3-----3----------5------7----------5------3-----------------|
A|------------------------------------------------------------------------|
E|------------------------------------------------------------------------|
 |                                                                        |
e|8^10------^10-----8^10------^10-----8^10-------^10----6-----------------|
B|----------------------------------------------------------8-------------|
G|------------------------------------------------------------------------|
D|------------------------------------------------------------------------|
A|------------------------------------------------------------------------|
E|------------------------------------------------------------------------|

100
 F7
e|------------------------------------------------------------------------|
B|10--------10------10-------10-------10------10------10------10------10--|
G|10--------10------10-------10-------10------10------10------10------10--|
D|10--------10------10-------10-------10------10------10------10------10--|
A|------------------------------------------------------------------------|
E|------------------------------------------------------------------------|
 |                                                                        |
e|10^12----12~~~~~~~~~~~~~~~~12~~~~~~~12~~~~~~~12-----10^12--10-10--10^12-|
B|------------------------------------------------------------------------|
G|------------------------------------------------------------------------|
D|------------------------------------------------------------------------|
A|------------------------------------------------------------------------|
E|------------------------------------------------------------------------|

101
 C9
e|------------------------------------------------------------------------|
B|8------8----------8-------8---------8------8----------8-------8---------|
G|9------9----------9-------9---------9------9----------9-------9---------|
D|8------8----------8-------8---------8------8----------8-------8---------|
A|------------------------------------------------------------------------|
E|------------------------------------------------------------------------|
 |                                                                        |
e|10-10---10^12--10-10---10^12--10-10--10^12--^12--^13--^13^10--8-10-10^11|
B|------------------------------------------------------------------------|
G|------------------------------------------------------------------------|
D|------------------------------------------------------------------------|
A|------------------------------------------------------------------------|
E|------------------------------------------------------------------------|

102
 C9
e|------------------------------------------------------------------------|
B|8------8----------8-------8---------8------8----------8-------8---------|
G|9------9----------9-------9---------9------9----------9-------9---------|
D|8------8----------8-------8---------8------8----------8-------8---------|
A|------------------------------------------------------------------------|
E|------------------------------------------------------------------------|
 |                                                                        |
e|8-----------------------------------------------------------------------|
B|---10--^12^10--8--10-----8-----8----8--------8---10---10^11^10^11^10^11^|
G|----------------------9-------------------9-----------------------------|
D|------------------------------------------------------------------------|
A|------------------------------------------------------------------------|
E|------------------------------------------------------------------------|

  1        &        2        &        3        &        4        &

103
 G7                                  Am7
e|------------------------------------------------------------------------|
B|3---------3-------3--------3--------5-------5-------5-------5-------5---|
G|4---------4-------4--------4--------5-------5-------5-------5-------5---|
D|3---------3-------3--------3--------5-------5-------5-------5-------5---|
A|------------------------------------------------------------------------|
E|------------------------------------------------------------------------|
 |                                                                        |
e|------------------------------------------------------------------------|
B|10^11^10p8--------8-----------------8h10~~~\----------------8-----10----|
G|-------------------------------9----------------------9-----------------|
D|------------------------------------------------------------------------|
A|------------------------------------------------------------------------|
E|------------------------------------------------------------------------|

104
 Bm7                                 Bbm7
e|------------------------------------------------------------------------|
B|7---------7-------7--------7--------6-------6-------6-------6-------6---|
G|7---------7-------7--------7--------6-------6-------6-------6-------6---|
D|7---------7-------7--------7--------6-------6-------6-------6-------6---|
A|------------------------------------------------------------------------|
E|------------------------------------------------------------------------|
 |                                                                        |
e|----------------10^12-^12^10--8-10--6^7-6^7-----------------------------|
B|10^12^10----8--------------------------------8p6------------------------|
G|-------------------------------------------------7-6p5---3----5---3h5p3-|
D|------------------------------------------------------------------------|
A|------------------------------------------------------------------------|
E|------------------------------------------------------------------------|

105
 Am7
e|------------------------------------------------------------------------|
B|5----5----5-------5----5----5--------5------5------5------5------4----5-|
G|5----5----5-------5----5----5--------5------5------5------5------4----5-|
D|5----5----5-------5----5----5--------5------5------5------5------4----5-|
A|------------------------------------------------------------------------|
E|------------------------------------------------------------------------|
 |                                                                        |
e|--------------------------3---------------------------------------------|
B|-------------------3--h6-----6---3------3--3----------------------------|
G|5^7-----(7)~~~~~~-------------------5---------3`--5---5h6p5-3--3^--3^---|
D|------------------------------------------------------------------------|
A|------------------------------------------------------------------------|
E|------------------------------------------------------------------------|

106
 Cm7
e|------------------------------------------------------------------------|
B|8---------8-------8--------8--------8-------8-------8-------8-------8---|
G|8---------8-------8--------8--------8-------8-------8-------8-------8---|
D|8---------8-------8--------8--------8-------8-------8-------8-------8---|
A|------------------------------------------------------------------------|
E|------------------------------------------------------------------------|
 |                                                                        |
e|------------------------------------------------------------------------|
B|------------------------------------------------------------------------|
G|------------------------------------3------3----------------------------|
D|5~----5~----5~----5~----5~----3-h5-----5------5-------3-----------------|
A|---------------------------------------------------------5--3-\1--------|
E|------------------------------------------------------------------3--1--|

107
 G7                                   C9
e|------------------------------5--\--3-----------------------------------|
B|3------------------------------------------------------------------5--\-|
G|3h4--------------------3-/-5-----\--3-----------------------------------|
D|3-----------------------------------------------------------3-/-5-----\-|
A|------------------------------------------------------------------------|
E|------------------------------------------------------------------------|
 |                                                                        |
e|------------------------------------------------------------------------|
B|------------------------------------------------------------------------|
G|-------------------------3----5^7---5~----------------3^-----------3^---|
D|------------------/5-----------------------------------------5----------|
A|------------------------------------------------------------------------|
E|3-----------------------------------------------------------------------|

108
 G7                                   D+
e|------------------------------------------------------------------------|
B|3-----------------------------------3-----------------------------5-----|
G|----------------------------------3-------------------------------------|
D|3-------------------------------4--------------------------3-/-5-----5-\|
A|------------------------------5-----------------------------------------|
E|------------------------------------------------------------------------|
 |                                                                        |
e|------------------------------------------------------------------------|
B|-----------------------3------------------------------------------------|
G|------------------3h4--------3h4----------------------------------------|
D|5~----------------------------------------------------------------------|
A|------------------------------------5-----------------3---2-------------|
E|------------------------------------------------------------------------|

  1        &        2        &        3        &        4        &

  Harp solo

109
 G7
e|-----------------------------------------------------------------5------|
B|3-----------------------------------------------------------------------|
G|----------------------------------------------------------3-/-5-----5-\-|
D|3-----------------------------------------------------------------------|
A|------------------------------------------------------------------------|
E|------------------------------------------------------------------------|
 |                                                                        |
e|------------------------------------------------------------------------|
B|---------------------------------------------------------3--------------|
G|---------------------------------------------------------3h4------------|
D|/5----------------------------------------------------------------------|
A|------------------------------------------------------------------------|
E|------------------------------------------------------------------------|

110
 C9
e|3-----------------------------------------------------------------------|
B|-------------------------------------------------------------------5-\--|
G|3-----------------------------------------------------------------------|
D|-----------------------------------------------------------3-/-5-----\--|
A|------------------------------------------------------------------------|
E|------------------------------------------------------------------------|
 |                                                                        |
e|------------------------------------------------------------------------|
B|-------------------------------------3---3------------------------------|
G|-------------------------------------3---3------------------------------|
D|-------------------------------------3---3------------------------------|
A|------------------------------------------------------------------------|
E|------------------------------------------------------------------------|

111
 G7                                   Ab7
e|------------------------------------------------------------------------|
B|3----------------3-----3-----3-----4-----4-----4-----4-----4-----6-\-4-\|
G|------------------------------------------------------------------------|
D|3----------------3-----3-----3-----4-----4-----4-----4-----4-----6-\-4-\|
A|------------------------------------------------------------------------|
E|------------------------------------------------------------------------|
 |                                                                        |
e|------------------------------------------------------------------------|
B|-----------------3-/-5----(5)-\-3---4-------------------------------4---|
G|------------------------------------------------------------------------|
D|-----------------3-/-5----(5)-\-3---4-------------------------------4---|
A|------------------------------------------------------------------------|
E|------------------------------------------------------------------------|

112
 G7
e|------------------------------------------3-----------4----/-6----------|
B|3----------------------3-----4------3-----------------------------------|
G|------------------------------------------3-----------4----/-6----------|
D|3----------------------3-----4------3-----------------------------------|
A|------------------------------------------------------------------------|
E|------------------------------------------------------------------------|
 |                                                                        |
e|------------------------------------------------------------------------|
B|3-----------------------------------------8-----------------------------|
G|------------------------------------------------------------------------|
D|3-----------------------------------------8-----------------------------|
A|------------------------------------------------------------------------|
E|------------------------------------------------------------------------|

113
 C9
e|3-\---------------------------------------------------------------------|
B|------------------------------------------------------------------------|
G|3-\-----------------------------------------------------------5----3^4--|
D|------------------------------------------------------------------------|
A|------------------------------------------------------------------------|
E|------------------------------------------------------------------------|
 |                                                                        |
e|------------------3-/-5-------5-\-3-------------------------------------|
B|------------------------------------------------------------------------|
G|------------------3-/-5-------5-\-3-------------------------------------|
D|------------------------------------------------------------------------|
A|------------------------------------------------------------------------|
E|------------------------------------------------------------------------|

114
 C9
e|------------------------------------------------------------------------|
B|3---------3--3----2--3-----3--3----3--3------3-------3-3-----3-----3-3--|
G|3---------3--3----2--3-----3--3----3--3------3-------3-3-----3-----3-3--|
D|2---------2--2----1--2-----2--2----2--2------2-------2-2-----2-----2-2--|
A|3-----------------------------------------------------------------------|
E|------------------------------------------------------------------------|
 |                                                                        |
e|------------------------------------------------------------------------|
B|3---------3--3----2--3-----3--3----3--3------3-------3-3-----3-----3-3--|
G|3---------3--3----2--3-----3--3----3--3------3-------3-3-----3-----3-3--|
D|2---------2--2----1--2-----2--2----2--2------2-------2-2-----2-----2-2--|
A|3-----------------------------------------------------------------------|
E|------------------------------------------------------------------------|

  1        &        2        &        3        &        4        &

115
 G7                                  Am7
e|------------------------------------------------------------------------|
B|3----3----3---3---3---3----3---3----5---5---5---5---5---5---5---5---5---|
G|3h4--3----3---3---3---3----3---3----5---5---5---5---5---5---5---5---5---|
D|3----3----3---3---3---3----3---3----5---5---5---5---5---5---5---5---5---|
A|------------------------------------------------------------------------|
E|------------------------------------------------------------------------|
 |                                                                        |
e|------------------------------------------------------------------------|
B|------------3-----3---------3-------5---------------------5-------------|
G|------------4-----4---------4-------5---------------------5-------------|
D|------------------------------------------------------------------------|
A|------------------------------------------------------------------------|
E|------------------------------------------------------------------------|

116
 Bm7                                 Bbm7
e|------------------------------------------------------------------------|
B|7-7-7--7-7-7--7-7-7--7-7-7--7-7-7---6-6-6--6-6-6--6-6-6--6-6-6--6-6-6---|
G|7-7-7--7-7-7--7-7-7--7-7-7--7-7-7---6-6-6--6-6-6--6-6-6--6-6-6--6-6-6---|
D|7-7-7--7-7-7--7-7-7--7-7-7--7-7-7---6-6-6--6-6-6--6-6-6--6-6-6--6-6-6---|
A|------------------------------------------------------------------------|
E|------------------------------------------------------------------------|
 |                                                                        |
e|-----------5-------5----------------------------------4-----------------|
B|-----------7-------7--------7-------6-----------------6---------6-------|
G|7---------------------------7-------6---------------------------6-------|
D|------------------------------------------------------------------------|
A|------------------------------------------------------------------------|
E|------------------------------------------------------------------------|

117
 Am7
e|------------------------------------------------------------------------|
B|5-5-5--5-5-5--5-5-5--5-5-5--5-5-5---5-5-5--5-5-5--5-5-5----4------5-----|
G|5-5-5--5-5-5--5-5-5--5-5-5--5-5-5---5-5-5--5-5-5--5-5-5----4------5-----|
D|5-5-5--5-5-5--5-5-5--5-5-5--5-5-5---5-5-5--5-5-5--5-5-5----4------5-----|
A|------------------------------------------------------------------------|
E|------------------------------------------------------------------------|
 |                                                                        |
e|3-----------------------------------------------------------------------|
B|5-----------------------------------------------------------------------|
G|5-----------------------------------------------------------------------|
D|------------------------------------------------------------------------|
A|------------------------------------------------------------------------|
E|------------------------------------------------------------------------|

118
 Cm7
e|------------------------------------------------------------------------|
B|8-8-8--8-8-8--8-8-8--8-8-8--8-8-8---8-8-8--8-8-8--8-8-8--8-8-8--8-8-8---|
G|8-8-8--8-8-8--8-8-8--8-8-8--8-8-8---8-8-8--8-8-8--8-8-8--8-8-8--8-8-8---|
D|8-8-8--8-8-8--8-8-8--8-8-8--8-8-8---8-8-8--8-8-8--8-8-8--8-8-8--8-8-8---|
A|------------------------------------------------------------------------|
E|------------------------------------------------------------------------|
 |                                                                        |
e|3-------------------------------------6---------------------------------|
B|4------------------------------------8----------------------------------|
G|3-----------------------------------8-----------------------------------|
D|------------------------------------------------------------------------|
A|------------------------------------------------------------------------|
E|------------------------------------------------------------------------|

119
 G                                    C
e|------------------------------5--\--3-----------------------------------|
B|3------------------------------------------------------------------5--\-|
G|3h4--------------------3-/-5-----\--3-----------------------------------|
D|3-----------------------------------------------------------3-/-5-----\-|
A|------------------------------------------------------------------------|
E|------------------------------------------------------------------------|
 |                                                                        |
e|------------------------------------------------------------------------|
B|-------------3----3-----3-----3------5----------5------5----5-----5-----|
G|-------------4----4-----4-----4------5----------5------5----5-----5-----|
D|-------------5----5-----5-----5------5----------5------5----5-----5-----|
A|-------------5----5-----5-----5------3----------3------3----3-----3-----|
E|------------------------------------------------------------------------|

120
 G7                                   D+
e|------------------------------------------------------------------------|
B|3-----------------------------------3-----------------------------------|
G|----------------------------------3-------------------------------------|
D|3-------------------------------4---------------------------------------|
A|------------------------------5-----------------------------------------|
E|------------------------------------------------------------------------|
 |                                                                        |
e|------------------------------------------------------------------------|
B|3-----------------------------------------------------------------------|
G|3h4---------------------------------------------------------------------|
D|3-----------------------------------------------------------------------|
A|--------------------3----4----5-----------------------------------------|
E|------------------------------------------------------------------------|

  1        &        2        &        3        &        4        &

  Gtrs 1 & 2 pretty much (I'm starting to pull my hair out, heh)

121
 G7
e|------------------------------------------------------------------------|
B|------------8-----8----------10--/--12---------10-----8-----------------|
G|------------------------------------------------------------------------|
D|------------9-----9----------10--/--12---------10-----9-----------------|
A|------------------------------------------------------------------------|
E|------------------------------------------------------------------------|

122
 C9
e|------------8-----8----------10--/--12---------10-----8-----------------|
B|------------------------------------------------------------------------|
G|------------9-----9----------10--/--12---------10-----9-----------------|
D|------------------------------------------------------------------------|
A|------------------------------------------------------------------------|
E|------------------------------------------------------------------------|

123
 G7                                   Ab7
e|------------------------------------------------------------------------|
B|------------8-----8----------10--/--12---------10-----8-----------------|
G|------------------------------------------------------------------------|
D|------------9-----9----------10--/--12---------10-----9-----------------|
A|------------------------------------------------------------------------|
E|------------------------------------------------------------------------|

124
 F7 (Sub for G7 ?)
e|------------------------------------------------------------------------|
B|10--------10------10-------10-------10------10------10------10------10--|
G|10--------10------10-------10-------10------10------10------10------10--|
D|10--------10------10-------10-------10------10------10------10------10--|
A|------------------------------------------------------------------------|
E|------------------------------------------------------------------------|

125
 C9
e|------------8-----8----------10--/--12---------10-----8-----------------|
B|------------------------------------------------------------------------|
G|------------9-----9----------10--/--12---------10-----9-----------------|
D|------------------------------------------------------------------------|
A|------------------------------------------------------------------------|
E|------------------------------------------------------------------------|

126
 C9
e|------------8-----8----------10--/--12---------10-----8-----------------|
B|------------------------------------------------------------------------|
G|------------9-----9----------10--/--12---------10-----9-----------------|
D|------------------------------------------------------------------------|
A|------------------------------------------------------------------------|
E|------------------------------------------------------------------------|

127
 G7                                  Am7
e|------------------------------------------------------------------------|
B|3---------3-------3--------3--------5-------5-------5-------5-------5---|
G|4---------4-------4--------4--------5-------5-------5-------5-------5---|
D|3---------3-------3--------3--------5-------5-------5-------5-------5---|
A|------------------------------------------------------------------------|
E|------------------------------------------------------------------------|

128
 Bm7                                 Bbm7
e|------------------------------------------------------------------------|
B|7---------7-------7--------7--------6-------6-------6-------6-------6---|
G|7---------7-------7--------7--------6-------6-------6-------6-------6---|
D|7---------7-------7--------7--------6-------6-------6-------6-------6---|
A|------------------------------------------------------------------------|
E|------------------------------------------------------------------------|

129
 Am7
e|------------------------------------------------------------------------|
B|5----5----5-------5----5----5--------5------5------5------5------4----5-|
G|5----5----5-------5----5----5--------5------5------5------5------4----5-|
D|5----5----5-------5----5----5--------5------5------5------5------4----5-|
A|------------------------------------------------------------------------|
E|------------------------------------------------------------------------|

130
 Cm7
e|------------------------------------------------------------------------|
B|8---------8-------8--------8--------8-------8-------8-------8-------8---|
G|8---------8-------8--------8--------8-------8-------8-------8-------8---|
D|8---------8-------8--------8--------8-------8-------8-------8-------8---|
A|------------------------------------------------------------------------|
E|------------------------------------------------------------------------|

131
 G7                                   C9
e|------------------------------------------------------------------------|
B|-------------3----3-----3-----3------5----------5------5----5-----5-----|
G|-------------4----4-----4-----4------5----------5------5----5-----5-----|
D|-------------5----5-----5-----5------5----------5------5----5-----5-----|
A|-------------5----5-----5-----5------3----------3------3----3-----3-----|
E|------------------------------------------------------------------------|

132
 G7                                   D+
e|---------------------------------------------------------------10^------|
B|3-----------------------------------3--------------------------11^------|
G|3h4-------------------------------3-------------------------------------|
D|3-------------------------------4---------------------------------------|
A|------------------------------5-----------------------------------------|
E|------------------------------------------------------------------------|

  1        &        2        &        3        &        4        &

  Verse 4

133                          Lord   have   mercy
 G7
e|10^-------------------------------------------------6^------------------|
B|11^------------------------------------------6h8-----------10--\--8--\--|
G|------------------------------------------------------------------------|
D|-----------------------------------------------------------10--\--8--\--|
A|------------------------------------------------------------------------|
E|------------------------------------------------------------------------|
 |                                                                        |
e|------------------------------------------------------------------------|
B|------------------------------------------------------------------------|
G|------------------------------------------------------------------------|
D|------------------------------------------------------------------------|
A|------------------------------------------------------------------------|
E|------------------------------------------------------------------------|

134                                                 Lord     have   mercy
 C9
e|------------------------------------------------------------------------|
B|-------------------------------------------------------------------5-\--|
G|------------------------------------------------------------------------|
D|-----------------------------------------------------------3-/-5-----\--|
A|------------------------------------------------------------------------|
E|------------------------------------------------------------------------|
 |                                                                        |
e|------------------3-/-5-------5-\-3-------------------------------------|
B|------------------------------------------------------------------------|
G|------------------3-/-5-------5-\-3-------------------------------------|
D|------------------------------------------------------------------------|
A|------------------------------------------------------------------------|
E|------------------------------------------------------------------------|

135   on  me
 G7                                   Ab7
e|------------------------------------------------------------------------|
B|3----------------------2--/-3--/--4---------------(4)-\--3--/-4-\--3----|
G|------------------------------------------------------------------------|
D|3----------------------2--/-3--/--4---------------(4)-\--3--/-4-\--3----|
A|------------------------------------------------------------------------|
E|------------------------------------------------------------------------|
 |                                                                        |
e|------------------------------------------------------------------------|
B|-----------------3-/-5----(5)-\-3---4-------------------------------6---|
G|------------------------------------------------------------------------|
D|-----------------3-/-5----(5)-\-3---4-------------------------------6---|
A|------------------------------------------------------------------------|
E|------------------------------------------------------------------------|

136
 G7
e|------------5^--------5h6p5---------------------------------------------|
B|(3)---------6^---------------5--------------------------------6-\-------|
G|--------------------------------------------------------------7-\-------|
D|(3)---------------------------------------------------------------------|
A|------------------------------------------------------------------------|
E|------------------------------------------------------------------------|
 |                                                                        |
e|------------------------------------------3-----------------------------|
B|3-----------------------------------------------------------------------|
G|------------------------------------------3-----------------------------|
D|3-----------------------------------------------------------------------|
A|------------------------------------------------------------------------|
E|------------------------------------------------------------------------|

137                     Yeah   I'm   crying
 C9
e|------------------------------------------------------------------6-----|
B|------------------------------------------------------------6h8---------|
G|------------------------------------------------------------------------|
D|------------------------------------------------------------------------|
A|------------------------------------------------------------------------|
E|------------------------------------------------------------------------|
 |                                                                        |
e|------------------3-/-5-------5-\-3-------------------------------------|
B|------------------------------------------------------------------------|
G|------------------3-/-5-------5-\-3-------------------------------------|
D|------------------------------------------------------------------------|
A|------------------------------------------------------------------------|
E|------------------------------------------------------------------------|

138  Lord have mercy                                       Lord      have
 C9
e|------------------------------------------------------------------------|
B|------------------------------------------------------------------------|
G|--------------------------3---5^6-5^6^5---------------------------------|
D|------------------------------------------------------------------------|
A|------------------------------------------------------------------------|
E|------------------------------------------------------------------------|
 |                                                                        |
e|------------------3-/-5---------5\3-------------------------------------|
B|------------------------------------------------------------------------|
G|------------------3-/-5---------5\3-------------------------------------|
D|------------------------------------------------------------------------|
A|------------------------------------------------------------------------|
E|------------------------------------------------------------------------|

  1        &        2        &        3        &        4        &

139 mercy  on  me
 G7                                  Am7
e|------------------------------------------------------------------------|
B|3---------3-------3--------3--------5-5-5--5-5-5--5-5-5--5-5-5--5-5-5---|
G|------------------------------------5-5-5--5-5-5--5-5-5--5-5-5--5-5-5---|
D|3---------3-------3--------3--------5-5-5--5-5-5--5-5-5--5-5-5--5-5-5---|
A|------------------------------------------------------------------------|
E|------------------------------------------------------------------------|
 |                                                                        |
e|------------------------------------------------------------------------|
B|------------3-----3---------3-------5---------------------5-------------|
G|------------4-----4---------4-------5---------------------5-------------|
D|------------------------------------------------------------------------|
A|------------------------------------------------------------------------|
E|------------------------------------------------------------------------|

140       Tell   me   baby               Lord  you  know  I'm  a  tryin'
 Bm7                                 Bbm7
e|------------------------------------------------------------------------|
B|7-7-7--7-7-7--7-7-7--7-7-7--7-7-7---6-6-6--6-6-6--6-6-6--6-6-6--6-6-6---|
G|7-7-7--7-7-7--7-7-7--7-7-7--7-7-7---6-6-6--6-6-6--6-6-6--6-6-6--6-6-6---|
D|7-7-7--7-7-7--7-7-7--7-7-7--7-7-7---6-6-6--6-6-6--6-6-6--6-6-6--6-6-6---|
A|------------------------------------------------------------------------|
E|------------------------------------------------------------------------|
 |                                                                        |
e|------------------------------------------------------------------------|
B|7----------7-------7--------7-------6--------6---------6----------6-----|
G|7----------7-------7--------7-------6--------6---------6----------6-----|
D|------------------------------------------------------------------------|
A|------------------------------------------------------------------------|
E|------------------------------------------------------------------------|

141          tryin'               trying    to    find    my   baby
 Am7

e|------------------------------------------------------------------------|
B|5-----------------5-----------------5------------------5----4--/---5----|
G|5-----------------5-----------------5------------------5----4--/---5----|
D|5-----------------5-----------------5------------------5----4--/---5----|
A|------------------------------------------------------------------------|
E|------------------------------------------------------------------------|
 |                                                                        |
e|------------------------------------------------------------------------|
B|5-----------------5-----------------5------------------5----------------|
G|5-----------------5-----------------5------------------5----------------|
D|5-----------------5-----------------5------------------5----------------|
A|------------------------------------------------------------------------|
E|------------------------------------------------------------------------|

142    Oh whoa whoa                                send  her  home   to me
 Cm7
e|------------------------------------------------------------------------|
B|8-----------------------------------------------------------------------|
G|8-----------------------------------------------------------------------|
D|8-----------------------------------------------------------------------|
A|------------------------------------------------------------------------|
E|------------------------------------------------------------------------|
 |                                                                        |
e|------------------------------------------------------------------------|
B|8-----------------------------------------------------------------------|
G|8-----------------------------------------------------------------------|
D|8-----------------------------------------------------------------------|
A|------------------------------------------------------------------------|
E|------------------------------------------------------------------------|

143                                        Yeah
 G                                    C
e|--------------6^----6^--------------3--------------6^----6^-------------|
B|--------------5^----5^--------------5--------------5^----5^-------------|
G|3h4\--------------------------------------------------------------------|
D|------------------------------------------------------------------------|
A|------------------------------------------------------------------------|
E|------------------------------------------------------------------------|
 |                                                                        |
e|------------------------------------------------------------------------|
B|-------------3----3-----3-----3------5----------5------5----5-----5-----|
G|-------------4----4-----4-----4------5----------5------5----5-----5-----|
D|-------------5----5-----5-----5------5----------5------5----5-----5-----|
A|-------------5----5-----5-----5------3----------3------3----3-----3-----|
E|------------------------------------------------------------------------|

144             Oh my!
 G7                  C                G
e|3----------------------5---------\--3-----------------------------------|
B|5-----------------------------------------------------------------------|
G|---------------3-/-5-----------5-\--3-----------------------------------|
D|------------------------------------------------------------------------|
A|------------------------------------------------------------------------|
E|------------------------------------------------------------------------|
 |                                                                        |
e|------------------------------------------------------------------------|
B|3------------------5-----------------3----------------------------------|
G|4------------------5-----------------4----------------------------------|
D|5------------------5-----------------5----------------------------------|
A|5------------------3-----------------5----------------------------------|
E|------------------------------------------------------------------------|

you must at least improvise the outro cause I'm beat!!

| /  slide up
| \  slide down
| h  hammer-on
| p  pull-off
| ~  vibrato
| x  Mute note
| ^  Bend
| `  Quarter bend after note ( 5^6^` a little more then a full bend to 6)