Aly And Aj - Rush Text Guitar Tab

Learn song with the online tabulature player
Aly & Aj
Rush
Into The Rush
2005 Hollywood records
Submitted by: paramore_fans@yahoo.com

Tuning: Drop D on Aly and she has a capo on 5th fret
        Drop D on Aj and no capo

Verse 1:

Aly: Cool plucking
e|-------------0---|-----------0-----|-----------2-----|---0-------------|
B|---------1-------|---------3---3---|---------5---5---|-----1---3-1-0---|
G|-----2-----2---0-|-------2-------2-|-------4-------4-|-------2---------|
D|---2---2---------|-----0-----------|-----2-----------|---------------2-| (x2)
A|-0---------------|---0-------------|---2-------------|-0---------------|
D|-----------------|-0---------------|-2---------------|-----------------|
       x4

Aj: 0:16
e|-----------------------------------|
B|-----------------------------------|
G|-----------------------------------|
D|--0~--------5~--------7~-------0~--|
A|--0~--------5~--------7~-------0~--|
D|--0~--------5~--------7~-------0~--|


Refrain: Can you feel it...

Aly:
e|-----------------|------------------|-----------------|-----------------|
B|---1---1---1---1-|---0---0---0---0--|---1---1---1---1-|---0---0---0---0-|
G|-----------------|-0---0---0---0----|-2---2---2---2---|-0---0---0---0---|
D|-2---2---2---2---|-2---2---2---2----|-2---2---2---2---|-0---0---0---0---|
A|-0---0---0---0---|-2---2---2---2----|-0---0---0---0---|-2---2---2---2---|
D|-0---0---0---0---|-2---2---2---2----|-----------------|-----------------|
then
e|-----------------|---------------|
B|-----------------|---------------|
G|---5---5---5---5-|-1-1-1-1-1-1-1-|
D|-3---3---3---3---|-2-2-2-2-2-2-2-|
A|-3---3---3---3---|-2-2-2-2-2-2-2-|
D|-----------------|-2-2-2-2-2-2-2-|

Aj: Palm mute these 4 bars only, 2 below volume loudens up to distortion
e|-----------------|-----------------|-----------------|-----------------|
B|-----------------|-----------------|-----------------|-----------------|
G|-----------------|-----------------|-----------------|-----------------|
D|-7-7-7-7-7-7-7-7-|-7-7-7-7-7-7-7-7-|-0-0-3-0-2-3-2-3-|-2-2-2-2-2-2-2-2-|
A|-5-5-5-5-5-5-5-5-|-7-7-7-7-7-7-7-7-|-0-0-0-0-0-0-0-0-|-3-3-3-3-3-3-3-3-|
D|-5-5-5-5-5-5-5-5-|-7-7-7-7-7-7-7-7-|-0-0-0-0-0-0-0-0-|-2-2-2-2-2-2-2-2-|
then
e|-----------------|---------------|
B|-----------------|---------------|
G|-----------------|-9-9-9-9-9-9-9-|
D|-3-3-3-3-3-3-3-3-|-7-7-7-7-7-7-7-|
A|-1-1-1-1-1-1-1-1-|-7-7-7-7-7-7-7-|
D|-3-3-3-3-3-3-3-3-|-7-7-7-7-7-7-7-|


Chorus:

Aly:
e|---------------3---|-------------0---|-------------3---|---------------|
B|---1-------0h1---1-|-------1-0h1---1-|-----1---0h1---1-|-----0---3---0-|
G|-------2-----------|-1---2-----------|-------0---------|-------0---0---|
D|-----2---2---------|-3-3-------------|-----------------|---------------| (x2)
A|-0-----------------|-3---------------|-3-3-------------|-2-2-----------|
D|-------------------|-3---------------|-----------------|---------------|
then * means harmonics
e|---12*---|
B|---------|
G|---------|
D|---------|
A|-0-------|
D|---------|

Aj:
e|-------------|-------------|-------------|-------------|
B|-------------|-------------|-------------|-------------|
G|-------------|-------------|-------------|-------------|
D|-0--0--0-0-0-|-8--8--8-8-8-|-3--3--3-3-3-|-2--2--2-2-2-| (x2)
A|-0--0--0-0-0-|-8--8--8-8-8-|-3--3--3-3-3-|-3--3--3-3-3-|
D|-0--0--0-0-0-|-8--8--8-8-8-|-3--3--3-3-3-|-2--2--2-2-2-|
then let ring
e|-1--
B|-3--
G|-2--
D|-0--
A|-0--
D|-0--

Verse 2:

Aly:
e|-----------------|-----------------|-----------------|-------------------------------3-|
B|-----------------|-----------------|-----------------|-------------------1-------0h1---|
G|-----------------|-----------------|-----0---0---0---|---0---0---0---0-------2---------|
D|-----------------|-----------------|-----------------|---------------------2---2-------|
A|-0-0-0-0-0-0-0-0-|-----------------|-----------------|-0---0---0---0---0---------------|
D|-----------------|-0-0-0-0-0-0-0-0-|-2-2---2---2---2-|---------------------------------|
         x4

Aj: Idle in this Verse

(Repeat Refrain And Chorus except their last parts; Disregard Aly's Harmonics and Aj's 
Ring)

Bridge:

Aly:
e|-----------------|-----------------|-----------------|-----------------|
B|-----------------|-----------------|-----------------|-----------------|
G|-2-2-2-2-2-2-2-2-|-5-5-5-5-5-5-5-5-|-----------------|-----------------|
D|-2-2-2-2-2-2-2-2-|-5-5-5-5-5-5-5-5-|-5-5-5-5-5-5-5-5-|-3-3-3-3-3-3-3-3-|
A|-0-0-0-0-0-0-0-0-|-3-3-3-3-3-3-3-3-|-5-5-5-5-5-5-5-5-|-3-3-3-3-3-3-3-3-|
D|-----------------|-----------------|-5-5-5-5-5-5-5-5-|-3-3-3-3-3-3-3-3-|
then
e|-----------------|-----------------|-------------|----|
B|-----------------|-----------------|-------------|----|
G|-2-2-2-2-2-2-2-2-|-5-5-5-5-5-5-5-5-|-------------|-2~-|
D|-2-2-2-2-2-2-2-2-|-5-5-5-5-5-5-5-5-|-5--5--5-5-5-|-3~-|
A|-0-0-0-0-0-0-0-0-|-3-3-3-3-3-3-3-3-|-5--5--5-5-5-|-3~-|
D|-----------------|-----------------|-5--5--5-5-5-|-3~-|

Aj: Palm Mute
e|-----------------|-----------------|-----------------|-----------------|
B|-----------------|-----------------|-----------------|-----------------|
G|-----------------|-----------------|-5-5-5-5-5-5-5-5-|-3-3-3-3-3-3-3-3-|
D|-0-0-0-0-0-0-0-0-|-3-3-3-3-3-3-3-3-|-5-5-5-5-5-5-5-5-|-3-3-3-3-3-3-3-3-|
A|-0-0-0-0-0-0-0-0-|-3-3-3-3-3-3-3-3-|-3-3-3-3-3-3-3-3-|-1-1-1-1-1-1-1-1-|
D|-0-0-0-0-0-0-0-0-|-3-3-3-3-3-3-3-3-|-----------------|-----------------|
then
e|-----------------|-----------------|-------------|----|
B|-----------------|-----------------|-------------|----|
G|-----------------|-----------------|-5--5--5-5-5-|-3~-|
D|-0-0-0-0-0-0-0-0-|-3-3-3-3-3-3-3-3-|-5--5--5-5-5-|-3~-|
A|-0-0-0-0-0-0-0-0-|-3-3-3-3-3-3-3-3-|-3--3--3-3-3-|-1~-|
D|-0-0-0-0-0-0-0-0-|-3-3-3-3-3-3-3-3-|-------------|----|

Aly: Plucking Solo at 1:56
e|-----0-----0-----|-3-----3-----3---|
B|-1-------1---1---|---1-----1-----1-|
G|---0---0-------0-|-----0-----0-----|
D|-----------------|-----------------|
A|-----------------|-----------------|
D|-----------------|-----------------|
         x5

Aj: Palm mute these 4 bars only, 2 below volume loudens up to distortion
e|-----------------|-----------------|-----------------|-----------------|
B|-----------------|-----------------|-----------------|-----------------|
G|-----------------|-----------------|-----------------|-----------------|
D|-7-7-7-7-7-7-7-7-|-7-7-7-7-7-7-7-7-|-0-0-3-0-2-3-2-3-|-2-2-2-2-2-2-2-2-|
A|-5-5-5-5-5-5-5-5-|-7-7-7-7-7-7-7-7-|-0-0-0-0-0-0-0-0-|-3-3-3-3-3-3-3-3-|
D|-5-5-5-5-5-5-5-5-|-7-7-7-7-7-7-7-7-|-0-0-0-0-0-0-0-0-|-2-2-2-2-2-2-2-2-|
then
e|-------------|----|
B|-------------|----|
G|-------------|-9~-|
D|-3--3--3-3-3-|-7~-|
A|-1--1--1-1-1-|-7~-|
D|-3--3--3-3-3-|-7~-|

(Repeat Chorus until fade out except their last parts)
_____________________________________________________________

Chords used: Drop D only (We will follow Aj's chords here,)

Aj                    Aly: Capo on 5th fret
D5  - 0577xx          A5  - 777xxx
Bb5 - 888xxx          F5  - 333xxx
F5  - 333xxx          C5  - x355xx
C/E - 232xxx          G/B - x20033
G5  - 555xxx          D5  - 000xxx
A5  - 777xxx          E5  - 222xxx
D/G - 557xxx          A/D - 002x1x
Bb/F- 313xxx          F/C - 0335xx
C5  - x355xx          G5  - 555xxx

Verse 1:

D5
  Into your head, into your mind, out of your soul
                  G5                     A5            D5
race through your veins, you can't escape, you can't escape
                                                            G5
Into your life, into your dreams, out of the dark sunlight again
            A5                 D5
You can't explain, you can't explain


Refrain:
        D/G              A5     D5
Can you feel it, can you feel it
                         C/E
Rushing through your head, rushing through your head
        Bb/F         A5(Hold)
Can you feel it, can feel it


Chorus:
D5               Bb5                   F5
Don't let nobody tell you your life is over
         C/E            D5
be every color that you are
         Bb5                        F5
Into the rush now you don't have to know how
        C/E            D5
know it all before you try


Verse 2:
D5
  Putting you in, spinning around, lifting your feet
            G5                 A5                        D5
run off the ground you can't believe that it's happening now

(Repeat Refrain and Chorus)


Bridge:
D5                 F5
  It takes you to another place
C5             Bb5
  Imagine everything you can
D5                F5
  All the colors start to blend
C5                Bb5        D5(Aly is plucking here)
  Your system overloads again

A5-D5-C/E

        Bb/F    A5(hold)
Can you feel it?

(Repeat Chorus)

Chorus 2:
D5          Bb5            F C/E
  Don't let nobody tell you       (x2)

(Repeat chorus)

Outro:

Yeah yeah yeah
Yeeah yeah yeah