Amber Pacific - Save Me From Me Text Guitar Tab

Learn the song with the online tablature player
INTRO

e|------------------------------------------------------------------------|
B|------------------------------------------------------------------------|
G|--10—-6/13--11-10-11—8-10-11-6-5----------------------------------------|
D|--x---x/-x--x--x--x--x-x--x--x-x----------------------------------------|
A|--8---4/11--9--8--9--6-8--9--4-3----------------------------------------|
D|------------------------------------------------------------------------|

VERSE is pretty much the drums and about half way through some guitar effects come in

                                     Let ring
e|------------------------------------------------------------------------|
B|---6-x16--7-x16--6-x16--4-x16-------9-9-9-------------------------------|
G|-----------------------------------6-6-6-6------------------------------|
D|------------------------------------------------------------------------|
A|------------------------------------------------------------------------|
D|------------------------------------------------------------------------|

CHORUS
e|------------------------------------------------------------------------|
B|------------------------------------------------------------------------|
G|--10-6--8--10--8--6--11-8--10-8—-10-11-8--6-10-11-8-6-------------------|
D|--x--x--x--x---x--x--x--x--x--x—-x--x--x--x-x--x--x-x-------------------|
A|--8--4--6--8---6--4--9—-6--8--6—-8--9--6--4-8--9--6-4-------------------|
D|------------------------------------------------------------------------|

VERSE

                                     Let ring
e|------------------------------------------------------------------------|
B|---6-x16--7-x16--6-x16--4-x16-------9-9-9-------------------------------|
G|-----------------------------------6-6-6-6------------------------------|
D|------------------------------------------------------------------------|
A|------------------------------------------------------------------------|
D|------------------------------------------------------------------------|

CHORUS

e|------------------------------------------------------------------------|
B|------------------------------------------------------------------------|
G|--10-6--8--10--8--6--11-8--10-8—----------------------------------------|
D|--x--x--x--x---x--x--x--x--x--x—----------------------------------------|
A|--8--4--6--8---6--4--9—-6--8--6—----------------------------------------|
D|------------------------------------------------------------------------|

BRIDGE

e|------------------------------------------------------------------------|
B|------------------------------------------------------------------------|
G|-----------------------------------------------------10-11-8------------|
D|--4----6----8----6----4----6----6-4-6----pick slide--x--x--x------------|
A|--4-x8-6-x8-8-x8-6-x8-4-x8-6-x8-6-4-6----pick slide--8--9--6------------|
D|--4----6----8----6----4----6----6-4-6----pick slide---------------------|
    *    *    *    *    *    *

CHORUS

e|------------------------------------------------------------------------|
B|------------------------------------------------------------------------|
G|--10-6--8--10--8--6--11-8--10-8—----------------------------------------|
D|--x--x--x--x---x--x--x--x--x--x—-pick slide-----------------------------|
A|--8--4--6--8---6--4--9—-6--8--6—-pick slide-----------------------------|
D|---------------------------------pick slide-----------------------------|

After the pick slide the chorus is a little different
e|------------------------------------------------------------------------|
B|------------------------------------------------------------------------|
G|--6-8-10-13-6-10-8-6-8-10-13-6-----6-8-10-13-6-10-8-6-10-8-6------------|
D|--x-x-x--x--x-x--x-x-x-x--x--x-----x-x-x--x--x-x--x-x-x--x-x------------|
A|--4-6-8--11-4-8--6-4-6-8--11-4-----4-6-8--11-4-8--6-4-8--6-4------------|
D|------------------------------------------------------------------------|

| /  slide up
| \  slide down
| h  hammer-on
| p  pull-off
| ~  vibrato
| +  harmonic
| *  Mute note