Amber Pacific - Thoughts Before Me Text Guitar Tab

Learn the song with the online tablature player
Intro
-----------------------------------------------|
-5-4---5-4---5-4---7---------------------------|
-----6-----6-----6-----9999999999-8888888888---|
-----------------------9999999999-9999999999---|
-----------------------7777777777-6666666666---|
-----------------------------------------------|

-----------------------------------------------|
-5-4---5-4---5-4---7---------------------------|
-----6-----6-----6-----9999999999-88888888-6-4-|
-----------------------9999999999-99999999-6-4-|
-----------------------7777777777-66666666-4-2-|
-----------------------------------------------|

Verse
---------------------------------------------------------------------|
---------------------------------------------------------------------|
---------------------------------------------------------------------|
---------------------------------------------------------------------|
-22222222222222222222222222222222-7-22222222222222222222222222222222-|
-22222222222222222222222222222222-7-22222222222222222222222222222222-|
-00000000000000000000000000000000-5-00000000000000000000000000000000-|

---------------------------------------------------------------------------------|
---------------------------------------------------------------------------------|
---------------------------------------------------------------------------------|
-22-2-22-2-22-2-22-2-22-2-22-2-22-2-22-2-77-7-77-7-77-7-77-7-77-7-77-7-77-7-77-7-|
-22-2-22-2-22-2-22-2-22-2-22-2-22-2-22-2-77-7-77-7-77-7-77-7-77-7-77-7-77-7-77-7-|
-00-0-00-0-00-0-00-0-00-0-00-0-00-0-00-0-55-5-55-5-55-5-55-5-55-5-55-5-55-5-55-5-|
 **   **   **   **   **   **   **   **   **   **   **   **   **   **   **   **

Pre-Chorus
----------------------------------------------------|
----------------------------------------------------|
-9-9-9-9-11-11-11-11-6-8-9--9-9-9-9-11-11-11-11-6-8-|
-x-x-x-x-x--x--x--x--x-x-x--x-x-x-x-x--x--x--x--x-x-|
-7-7-7-7-9--9--9--9--4-6-7--7-7-7-7-9--9--9--9--4-6-|
----------------------------------------------------|

-------------------------------------|
-------------------------------------|
-9-9-9-9-11-11-11-11-6-6-6-6-8-8-8-8-|
-x-x-x-x-x--x--x--x--x-x-x-x-x-x-x-x-|  x2
-7-7-7-7-9--9--9--9--4-4-4-4-6-6-6-6-|
-------------------------------------|

Chorus
------------------------------------------------------------|
------------------------------------------------------------|
-9999999999999999-8888888888888888-9-8-4-9-9999999999999999-|
-9999999999999999-9999999999999999-9-9-4-9-9999999999999999-|   x2
-7777777777777777-6666666666666666-7-6-2-7-7777777777777777-|
------------------------------------------------------------|

Bridge
-----------------------------------------------|
-5-4---5-4---5-4---7---------------------------|
-----6-----6-----6-----9999999999-88888888-6-4-|
-----------------------9999999999-99999999-6-4-|
-----------------------7777777777-66666666-4-2-|
-----------------------------------------------|

Verse 2
---------------------------------------------------------------------|
---------------------------------------------------------------------|
---------------------------------------------------------------------|
---------------------------------------------------------------------|
-22222222222222222222222222222222-7-22222222222222222222222222222222-|
-22222222222222222222222222222222-7-22222222222222222222222222222222-|
-00000000000000000000000000000000-5-00000000000000000000000000000000-|

---------------------------------------------------------------------------------|
---------------------------------------------------------------------------------|
---------------------------------------------------------------------------------|
-22-2-22-2-22-2-22-2-22-2-22-2-22-2-22-2-77-7-77-7-77-7-77-7-77-7-77-7-77-7-77-7-|
-22-2-22-2-22-2-22-2-22-2-22-2-22-2-22-2-77-7-77-7-77-7-77-7-77-7-77-7-77-7-77-7-|
-00-0-00-0-00-0-00-0-00-0-00-0-00-0-00-0-55-5-55-5-55-5-55-5-55-5-55-5-55-5-55-5-|
 **   **   **   **   **   **   **   **   **   **   **   **   **   **   **   **

Pre-Chorus
----------------------------------------------------|
----------------------------------------------------|
-9-9-9-9-11-11-11-11-6-8-9--9-9-9-9-11-11-11-11-6-8-|
-x-x-x-x-x--x--x--x--x-x-x--x-x-x-x-x--x--x--x--x-x-|
-7-7-7-7-9--9--9--9--4-6-7--7-7-7-7-9--9--9--9--4-6-|
----------------------------------------------------|

-------------------------------------|
-------------------------------------|
-9-9-9-9-11-11-11-11-6-6-6-6-8-8-8-8-|
-x-x-x-x-x--x--x--x--x-x-x-x-x-x-x-x-|  x2
-7-7-7-7-9--9--9--9--4-4-4-4-6-6-6-6-|
-------------------------------------|

Chorus
------------------------------------------------------------|
------------------------------------------------------------|
-9999999999999999-8888888888888888-9-8-4-9-9999999999999999-|
-9999999999999999-9999999999999999-9-9-4-9-9999999999999999-|   x2
-7777777777777777-6666666666666666-7-6-2-7-7777777777777777-|
------------------------------------------------------------|

Interlude
---0-----0---0-----0---0-----0---0-----0-|
---0-----0---0-----0---0-----0---0-----0-|
---4-----4---4-----4---4-----4---4-----4-|
-2-2-2-2-2-2-2-2-2-2-2-2-2-2-2-2-2-2-2-2-|
-2---2-2---2---2-2---2---2-2---2---2-2---|
-0---0-0---0---0-0---0---0-0---0---0-0---|

-----------------------------------------------------------------|
-5-4-5-4-5-4-5-4-5-4-5-4-5-4-5-4-5-4-5-4-5-4-5-4-5-4-5-4-5-4-5-4-|
-----------------------------------------------------------------|
-----------------------------------------------------------------|
-----------------------------------------------------------------|
-----------------------------------------------------------------|

-----------------------------------------------------------------|
-5-4-5-4-5-4-5-4-5-4-5-4-5-4-5-4-5-4-5-4-5-4-5-4-5-4-5-4-5-4-5-4-|
-----------------------------------------------------------------|
-----------------------------------------------------------------|
-----------------------------------------------------------------|
-----------------------------------------------------------------|

Chorus
------------------------------------------------------------|
------------------------------------------------------------|
-9999999999999999-8888888888888888-9-8-4-9-9999999999999999-|
-9999999999999999-9999999999999999-9-9-4-9-9999999999999999-| x2
-7777777777777777-6666666666666666-7-6-2-7-7777777777777777-|
------------------------------------------------------------|

End On