Amen - Whores Of Hollywood Text Guitar Tab

Learn the song with the online tablature player
INTRO
G|-----------|
D|-----------|
A|----5---7--|
E|--3---3----|

G|------------------------------------|-----------|
D|------------------------------------|-----------|
A|------------------------------------|----5---7--|
E|----------5-5-5-5-5-55--------------|--3---3----|
   On my hands and knees again
   Begging for disease again

G|------------------------------------|-----------|
D|------------------------------------|-----------|
A|----------5-5-5-5-5-5-5-5-----------|---3~------|
E|------------------------------------|------3~---|
   I'll do what I want, do what I can

G|------------------------------------|-----------|
D|------------------------------------|-----------|
A|------------------------------------|----5---7--|
E|----------5-5-5-5-5-55--------------|--3---3----|
   To make it to this promised land
   Your baby does gotta do

G|------------------------------------|-----------|
D|------------------------------------|-----------|
A|----------5-5-5-5-5-5-5-5-----------|---3~------|
E|------------------------------------|------3~---|
   Only what you want her to

CHORUS
G|---------------------|-------------|
D|---------------------|-------------|
A|---------------------|--3333-------|
E|-------55555555------|-------3333--|
   This is a warning
   Whores of Hollywood               [x2]

G|------------------------------------|-----------|
D|------------------------------------|-----------|
A|------------------------------------|----5---7--|
E|----------5-5-5-5-5-55--------------|--3---3----|
   Do what I want, do what I can
   I'll do what I want, do what I can

G|------------------------------------|-----------|
D|------------------------------------|-----------|
A|----------5-5-5-5-5-5-5-5-----------|---3~------|
E|------------------------------------|------3~---|
   Cause I'm sick of love and
                    I'm sick of death

G|------------------------------------|-----------|
D|------------------------------------|-----------|
A|------------------------------------|----5---7--|
E|----------5-5-5-5-5-55--------------|--3---3----|
   Sick of life and I'm sick of this
   Stabbing so in love with you
   No more love for you and you

G|------------------------------------|-----------|
D|------------------------------------|-----------|
A|----------5-5-5-5-5-5-5-5-----------|---3~------|
E|------------------------------------|------3~---|
   I'm always on my hands and knees

G|--------|
D|--------|
A|--------|
E|--5~----|
   Free?

CHORUS
G|---------------------|-------------|
D|---------------------|-------------|
A|---------------------|--3333-------|
E|-------55555555------|-------3333--|
   This is a warning
   Whores of Hollywood               [x2]

G|------------------------------------|-----------|
D|------------------------------------|-----------|
A|------------------------------------|----5---7--|
E|----------5-5-5-5-5-55--------------|--3---3----|
   Do what I want, I'll do what I can
   Do what I want, I'll do what I can

G|------------------------------------|-----------|
D|------------------------------------|-----------|
A|----------5-5-5-5-5-5-5-5-----------|---3~------|
E|------------------------------------|------3~---|
   Cause I'm sick of love...

G|------------------------------------|
D|------------------------------------|
A|------------------------------------|
E|----------5555555------------------|
   Sick of love and I'm sick of death
   Sick of life and I'm sick of this