American Head Charge - Seamless Text Guitar Tab

Learn the song with the online tablature player
[intro/verse]Distorted
  D|-----------------------------------------------------------------|
  A|-----------------------------------------------------------------|
  F|-----------------------------------------------------------------|
  C|-3----------3--3----------3--3----------3--3---------3---4-------|
  G|-3--3-3-3-3-3--3--3-3-3-4-3--3--3-3-3-3-3--3-3-3-3-4-3-3-2-------|
  C|-3--3-3-3-3-3--3--3-3-3-4-3--3--3-3-3-3-3--3-3-3-3-4-3-3---------|
        p.m.---       p.m.---       p.m.---      p.m.---   -

  D|-----------------------------------------------------------------|
  A|-----------------------------------------------------------------|
  F|-----------------------------------------------------4-----------|
  C|-3----------3---3---------3--3----------3--3---------4-----------|
  G|-3--3-3-3-3-3-4-3-3-3-3-3-3--3--3-3-3-3-3--3-3-3-3-3-2-----------|
  C|-3--3-3-3-3-3-4-3-3-3-3-3-3--3--3-3-3-3-3--3-3-3-3-3-------------|
        p.m.---   -   p.m.---       p.m.---      p.m.---

     [intro gtr.2]Distorted(Let ring)
  D|-----------------------------------------------------------------|
  A|-----------------------------------------------------------------|
  F|-----------------------------------------------------------------|
  C|-----------------------------------------------------------------|
  G|-\9-8----\14-8-9-8-4----\9-8----\14-8-9-8-4----------------------|
  C|-----------------------------------------------------------------|

chorus 1
Distorted
  D|-----------------------------------------------------------------|
  A|-----------------------------------------------------------------|
  F|-----------------------------------------------------------------|
  C|-4-3-1-0-1-0-1-0-4-1-1-0-1-0-1-0-4-3-1-0-1-0-1-0-4-1-1-0-1-0-1-0-|
  G|-4-3-1-0-1-0-1-0-4-1-1-0-1-0-1-0-4-3-1-0-1-0-1-0-4-1-1-0-1-0-1-0-|
  C|-4-3-1-0-1-0-1-0-4-1-1-0-1-0-1-0-4-3-1-0-1-0-1-0-4-1-1-0-1-0-1-0-|
     p.m.-----------------------------------------------------------

     Let ring
  D|-----------------------------------------------------------------|
  A|-----------------------------------------------------------------|
  F|-----------------------------------------------------------------|
  C|-4-------1-0-1-0-4-------1-0-1-0-4-------1-0-1-0-4-------1-0-1-0-|
  G|-4-------1-0-1-0-4-------1-0-1-0-4-------1-0-1-0-4-------1-0-1-0-|
  C|-4-------1-0-1-0-4-------1-0-1-0-4-------1-0-1-0-4-------1-0-1-0-|

chorus 2
Distorted
  D|-----------------------------------------------------------------|
  A|-----------------------------------------------------------------|
  F|-----------------------------------------------------------------|
  C|-4-3-1-0-1-0-1-0-4-1-1-0-1-0-1-0-4-3-1-0-1-0-1-0-4-1-1-0-1-0-1-0-|
  G|-4-3-1-0-1-0-1-0-4-1-1-0-1-0-1-0-4-3-1-0-1-0-1-0-4-1-1-0-1-0-1-0-|
  C|-4-3-1-0-1-0-1-0-4-1-1-0-1-0-1-0-4-3-1-0-1-0-1-0-4-1-1-0-1-0-1-0-|
     p.m.-----------------------------------------------------------

  D|-----------------------------------------------------------------|
  A|-----------------------------------------------------------------|
  F|-----------------------------------------------------------------|
  C|-4-3-1-0-1-0-1-0-4-1-1-0-1-0-1-0-4-3-1-0-1-0-1-0-4-1-1-0-1-0-1-0-|
  G|-4-3-1-0-1-0-1-0-4-1-1-0-1-0-1-0-4-3-1-0-1-0-1-0-4-1-1-0-1-0-1-0-|
  C|-4-3-1-0-1-0-1-0-4-1-1-0-1-0-1-0-4-3-1-0-1-0-1-0-4-1-1-0-1-0-1-0-|

  D|-----------------------------------------------------------------|
  A|-----------------------------------------------------------------|
  F|-----------------------------------------------------------------|
  C|-4-------1-0-1-0-4-------1-0-1-0-4-------1-0-1-0-4-------1-0-1-0-|
  G|-4-------1-0-1-0-4-------1-0-1-0-4-------1-0-1-0-4-------1-0-1-0-|
  C|-4-------1-0-1-0-4-------1-0-1-0-4-------1-0-1-0-4-------1-0-1-0-|