American Hi-Fi - Blue Day Text Guitar Tab

Learn the song with the online tablature player
Intro/Verse
|-----------------------------------------------------------------|
|-----------------------------------------------------------------|
|-7-7-7-7-7-7-7-7-7-7-7-7-7-7-7-7-4-4-4-4-4-4-4-4-4-4-4-4-4-4-4-4-|
|-x-x-x-x-x-x-x-x-x-x-x-x-x-x-x-x-x-x-x-x-x-x-x-x-x-x-x-x-x-x-x-x-|
|-5-5-5-5-5-5-5-5-5-5-5-5-5-5-5-5-2-2-2-2-2-2-2-2-2-2-2-2-2-2-2-2-|
|-----------------------------------------------------------------|

Chorus
|---------------------------------|
|---------------------------------|
|---------------------------------|
|-7-7-7-7-4-4-4-4-7-7-7-7-4-4-4-4-|
|-5-5-5-5-2-2-2-2-5-5-5-5-2-2-2-2-|
|---------------------------------|

Rest of the Song Coming Soon!